Stereophonics - Have A Nice Day Chords & Tabs

 

Have A Nice Day Chords & Tabs

Stereophonics Chords & Tabs

Version: 1 Type: Tab 1 rating
1 star 2 stars 3 stars 4 stars 5 stars
comments

Have A Nice Day Tab

   
        STEREOPHOINICS--HAVE A NICE DAY

Verse 1
            A                    A7                    A                        A7                    G                        D

    
E--0-0-0-0-0-0-0-0----0-0-0-0-0-0-0-0----0-0-0-0-0-0-0-0----0-0-0-0-0-0-0-0----3-3-3-3-3-3-3-3----2-2-2-2-2-2-2-2
B--2-2-0-0-2-2-0-2----2-2-0-0-2-2-0-2----2-2-0-0-2-2-0-2----2-2-0-0-2-2-0-2----3-3-3-3-3-3-3-3----3-3-3-3-3-3-3-3        
G--2-2-2-2-2-2-2-2----2-2-2-2-2-2-2-2----2-2-2-2-2-2-2-2----2-2-2-2-2-2-2-2----0-0-0-0-0-0-0-0----2-2-2-2-2-2-2-2      }  Repeat this
D--2-2-2-2-2-2-2-2----0-0-0-0-0-0-0-0----2-2-2-2-2-2-2-2----0-0-0-0-0-0-0-0----0-0-0-0-0-0-0-0----0-0-0-0-0-0-0-0      }
A--0-0-0-0-0-0-0-0----0-0-0-0-0-0-0-0----0-0-0-0-0-0-0-0----0-0-0-0-0-0-0-0----2-2-2-2-2-2-2-2----x-x-x-x-x-x-x-x
E--x-x-x-x-x-x-x-x----x-x-x-x-x-x-x-x----x-x-x-x-x-x-x-x----x-x-x-x-x-x-x-x----3-3-3-3-3-3-3-3----x-x-x-x-x-x-x-x


CHORUS
[ Tab from: http://www.guitartabs.cc/tabs/s/stereophonics/have_a_nice_day_tab.html ]
E--0-0-0-0-0-0-0-0----0-0-0-0-0-0-0-0----0-0-0-0-0-0-0-0----0-0-0-0-0-0-0-0
B--2-2-0-0-2-2-0-2----2-2-0-0-2-2-0-2----2-2-0-0-2-2-0-2----2-2-0-0-2-2-0-2
G--2-2-2-2-2-2-2-2----2-2-2-2-2-2-2-2----2-2-2-2-2-2-2-2----2-2-2-2-2-2-2-2
D--2-2-2-2-2-2-2-2----0-0-0-0-0-0-0-0----2-2-2-2-2-2-2-2----0-0-0-0-0-0-0-0
A--0-0-0-0-0-0-0-0----0-0-0-0-0-0-0-0----0-0-0-0-0-0-0-0----0-0-0-0-0-0-0-0
E--x-x-x-x-x-x-x-x----x-x-x-x-x-x-x-x----x-x-x-x-x-x-x-x----x-x-x-x-x-x-x-x

Verse 2 and so on

E--0-0-0-0-0-0-0-0----0-0-0-0-0-0-0-0----0-0-0-0-0-0-0-0----0-0-0-0-0-0-0-0----3-3-3-3-3-3-3-3----2-2-2-2-2-2-2-2
B--2-2-0-0-2-2-0-2----2-2-0-0-2-2-0-2----2-2-0-0-2-2-0-2----2-2-0-0-2-2-0-2----3-3-3-3-3-3-3-3----3-3-3-3-3-3-3-3        
G--2-2-2-2-2-2-2-2----2-2-2-2-2-2-2-2----2-2-2-2-2-2-2-2----2-2-2-2-2-2-2-2----0-0-0-0-0-0-0-0----2-2-2-2-2-2-2-2      
D--2-2-2-2-2-2-2-2----0-0-0-0-0-0-0-0----2-2-2-2-2-2-2-2----0-0-0-0-0-0-0-0----0-0-0-0-0-0-0-0----0-0-0-0-0-0-0-0      Now go back
A--0-0-0-0-0-0-0-0----0-0-0-0-0-0-0-0----0-0-0-0-0-0-0-0----0-0-0-0-0-0-0-0----2-2-2-2-2-2-2-2----x-x-x-x-x-x-x-x        to chorus
E--x-x-x-x-x-x-x-x----x-x-x-x-x-x-x-x----x-x-x-x-x-x-x-x----x-x-x-x-x-x-x-x----3-3-3-3-3-3-3-3----x-x-x-x-x-x-x-x



Edited by tom burkinshaw- burky_the_turkey@hotmail.com
Comments