Stereophonics - Have A Nice Day Chords & Tabs

 

Have A Nice Day Chords & Tabs

Stereophonics Chords & Tabs

Version: 1 Type: Bass Tab 0 ratings
1 star 2 stars 3 stars 4 stars 5 stars
comments

Have A Nice Day Bass Tab

#----------------------------------PLEASE NOTE--------------------------------#
#This file is the author's own work and represents their interpretation of the#
#song. You may only use this file for private study, scholarship, or research.#
#-----------------------------------------------------------------------------#
#-- File created with Instab - http://www.pconline.com/~smcarey/instab.html --#
#-----------------------------------------------------------------------------#

Author/Artist: Stereophonics
Title: Have a nice day
Album: J.E.E.P
Transcribed by: Jack
Email: jackass399@hotmail.com

This is an easy song to play on bass and guitar....i might post the guitar for i
t aswell  at some point.
[ Tab from: http://www.guitartabs.cc/tabs/s/stereophonics/have_a_nice_day_btab.html ]
-|----------------------------------|---------------------------------------|-
-|----------------------------------|---------------------------------------|-
-|----------------------------------|---------------------------------------|-
-|------------------2-22222222222222|-----------------2-22222222222222------|-
-|-2-22222222222222-----------------|2-22222222222222-----------------------|-
-|----------------------------------|---------------------------------------|-
  Intro/Chorus                                                                

-|----------------------------------|---------------------------------------|-
-|----------------------------------|---------------------------------------|-
-|----------------------------------|---------------------------------------|-
-|----------------------------------|---------------------------------------|-
-|-2-22222222222222-----------------|-2-22222222222222----------------------|-
-|------------------0-00000000000000|------------------0-00000000000000-----|-
                                                                              

-|----------------------------------|-----------------------------------------
-|----------------------------------|-----------------------------------------
-|----------------------------------|-----------------------------------------
-|----------------------------------|-----------------------------------------
-|-4-44444444444444-2-22222222222222|-----------------------------------------
-|----------------------------------|-----------------------------------------
   Verse                                                                      

Comments