Stereophonics - Doorman Chords & Tabs

 

Doorman Chords & Tabs

Stereophonics Chords & Tabs

Version: 1 Type: Tab 2 ratings
1 star 2 stars 3 stars 4 stars 5 stars
comments

Doorman Tab

this song is on the new album "language,sex, violence, other?" and i thought it was a pretty cool song, so i've decided to tab it.

verses:

e)-----------------------------------------------------------------------------------------------
b)-8-8-8-8-8-8-8-8-8-8---------------------------------------------------------------------------
g)-7-7-7-7-7-7-7-7-7-7--6-6-6-6-6-6-6-6-6-6-6--4-4-4---------------------------------------------
d)-x-x-x-x-x-x-x-x-x-x--7-7-7-7-7-7-7-7-7-7-7--5-5-5---------------------------------------------
a)-7-7-7-7-7-7-7-7-7-7--7-7-7-7-7-7-7-7-7-7-7--5-5-5---------------------------------------------
e)----------------------5-5-5-5-5-5-5-5-5-5-5--3-3-3---------------------------------------------
[ Tab from: http://www.guitartabs.cc/tabs/s/stereophonics/doorman_tab.html ]
i'm not sure of the exact number of times you play each chord, just listen to the song to get an idea of the rythm.

break riff:

e)------------------------------
b)------------------------------
g)------------------------------
d)------------------------------
a)-----5-5-----5-5-----5-5------
e)-0-0-3-3-0-0-3-3-0-0-3-3-0----

chorus:
e)--------------------------------------------- to be completely honest, i'm not sure if this part is correct, but it sounds good to me. if anyone else has a better version of the part i would love to hear from you. well thats my first tab here on GTU. i hope you enjoy it.
b)---------------------------------------------
g)---------------------------------------------
d)-2-2-0---0-0---------------------------------
a)-------2-----2-2-2-0-0-----------------------
e)-----------------------3-0-------------------   
Comments