Stereophonics - Caravan Holiday Chords & Tabs

 

Caravan Holiday Chords & Tabs

Stereophonics Chords & Tabs

Version: 3 Type: Tab 0 ratings
1 star 2 stars 3 stars 4 stars 5 stars
comments

Caravan Holiday Tab

if you have any questions or problems e-mail me at in_your_world@hotmail.co.uk

and i know that this song is 100% correct!!!!

(L)=Legato Slide

Intro
Acoustic

|-----------------|----------------|----------------|--2---2---2---0-|
|-2--0---0---0---0|---0---0---0---0|---0---0---0---0|1---1---1---1---|
|-0----0---0---0--|-2---2---2---2--|-0---0---0---0--|2---------------|
|-0---------------|-0--------------|-0--------------|0---------------|
|-2---------------|----------------|-2--------------|----------------|
|-3---------------|----------------|-3--------------|----------------|

Verse:

   Seven day holiday...
|----------------|-----------------|----------------|-----------------|
|---0---0---0---0|----0---0---0---0|--0---0---0---0-|---0---0---0---0-|
|-0---0---0---0--|--2---2---2---2--|0---0---0---0---|-2---2---2---2---|
|----------------|--0--------------|----------------|-0---------------|
|----------------|-----------------|----------------|-----------------|
|-3--------------|-----------------|3---------------|-----------------|

  At the time we were...
|-----------------|---------------|---------------|----------------|
|---0---0---0---0-|--0---0---0---0|--0---0---0---0|--0---0---0---0-|
|-0---0---0---0---|2---2---2---2--|2---2---2---2--|0---0---0---0---|
|-----------------|0--------------|0--------------|----------------|
|-----------------|---------------|---------------|----------------|
|-3---------------|---------------|---------------|3---------------|
                     It didn't matter...
|-------------------|--------------------------|-------------------------|
|--------------3----|----------3-----3---3---3-|-3---3--3-------3--------|
|-------------------|0---------0-----0---0---0-|-2---2--2-------2--------|
|----------4------2-|0-----0---0-----0---0---0-|-0---0--0--4----4---2--0-|
|-------------------|2-----2-------------------|-------------------------|
|-------------------|3-----3-------------------|-------------------------|
                                                  I never really felt...
|------------------------|-----------------------|-----------------------|
|----------3-----3--3--3-|3---3--3--------3------|---------3-----3--3--3-|
|-0--------0-----0--0--0-|2---2--2--------2------|0--------0-----0--0--0-|
|-0-----0--0-----0--0--0-|0---0--0---4----4--2--0|0-----0--0-----0--0--0-|
|-2-----2----------------|-----------------------|2-----2----------------|
|-3-----3----------------|-----------------------|3-----3----------------|

|-------------------------|
|-3---3---3-------3-------|
|-2---2---2-------2-------|
|-0---0---0---4---4---2--0|
|-------------------------|
|-------------------------|
[ Tab from: http://www.guitartabs.cc/tabs/s/stereophonics/caravan_holiday_tab_ver_3.html ]
  Seven days watching rain...
|-----------------------|------------------------|----------------------|
|---------3-----3--3--3-|-3--3--3-------3--------|--------3--------3----|
|-0-------0-----0--0--0-|-2--2--2-------2--------|-----0--------0-----0-|
|-0---0---0-----0--0--0-|-0--0--0---4---4---2---0|-0--------------------|
|-2---2-----------------|------------------------|-2--------------------|
|-3---3-----------------|------------------------|-3--------------------|
                    REPEAT ALL TILL CHORUS
Guitar 1                        Guitar 2
|------------------------------|-2---2---2---2---2---2---2---0-|
|-------------3----------3-----|-1---1---1---1---1---1---1---0-|
|-------0------------0-------0-|-2---2---2---2---2---2---2---0-|
|--0---------------------------|-0---0---0---0---0---0---0-----|
|------------------------------|-------------------------------|
|------------------------------|-------------------------------|

Chorus:With clean tone & slide
 There's always time to complain...
|--------------------------|------------------------------------------------|
|-7/8----------8/10--------|---------10/12-----(12)\10---10(L)12-(L)10(L)12-|
|--------------------------|------------------------------------------------|
|--------------------------|------------------------------------------------|
|--------------------------|------------------------------------------------|
|--------------------------|------------------------------------------------|
                             The seasons change...
|----------------------------|-----------------------|----------------|
|---10(L)8(L)10----(10)(L)5--|7/8--------8/10--------|10/12---(12)\10-|
|----------------------------|-----------------------|----------------|
|----------------------------|-----------------------|----------------|
|----------------------------|-----------------------|----------------|
|----------------------------|-----------------------|----------------|

|--------------------------15--|--(15)(L)--------------------|-----|
|10(L)12(L)10(L)12-------------|---------------12(L)10(L)12--|-----|
|------------------------------|-----------------------------|--12-|
|------------------------------|-----------------------------|-----|
|------------------------------|-----------------------------|-----|
|------------------------------|-----------------------------|-----|

INTRO&VERSE

CHORUS

Outro:

|----3-----3-----3-----3-|----2-----2-------------|--2----3----5----7-----|
|----0-----0-----0-----0-|----1-----1-----0-----0-|--1----1----3----x---0-|
|-0-----0-----0-----0----|-2-----2-----2-----2----|--2----2----5----7-----|
|------------------------|-0----------------------|--0----0----0----0-----|
|------------------------|------------------------|-----------------------|
|-3----------------------|------------------------|-----------------------|
           Seven days holiday...
|------3-------3-------3-------3--|-----2-----3-----2-------|-------|
|------0-------0-------0-------0--|-----0-----------0-----0-|--3----|
|--0-------0-------0-------0------|--2-----2-----2-----2----|--0----|
|---------------------------------|--0----------------------|--0----|
|---------------------------------|-------------------------|--2----|
|--3------------------------------|-------------------------|--3----|
Comments