Stereophonics - A Thousand Trees Chords & Tabs

 

A Thousand Trees Chords & Tabs

Stereophonics Chords & Tabs

Version: 1 Type: Tab 0 ratings
1 star 2 stars 3 stars 4 stars 5 stars
comments

A Thousand Trees Tab

Riff 1
e------------------------
b------------------------
g------------------------
d-------------------5--5-
a-5--5--7--7--5--5--3--3-
e-3--3--5--5--3--3-------
[ Tab from: http://www.guitartabs.cc/tabs/s/stereophonics/a_thousand_trees_tab.html ]
Riff 2
e-------------1--1-------
b-1--1--1--1--1--1--1--1-
g-2--2--2--2--2--2-------
d-2--2--2--2--3--3--2--2-
a-------------3--3--3--3-
e-------------1--1-------

Riff 3
e-2--2--2--2--1--1-------
b-3--3--3--3--1--1--1--1-
g-2--2--2--2--2--2-------
d-------------3--3--2--2-
a-------------3--3--3--3-
e-------------1--1-------

Order
Riff 1*12
Riff 2*1
Riff 1*12
Riff 2*1
Riff 1*12
Riff 3*4
Riff 1*12 
Riff 2*1
Riff 1*12
Comments