Stereomud - Steppin Away Chords & Tabs

 

Steppin Away Chords & Tabs

Stereomud Chords & Tabs

Version: 1 Type: Tab 0 ratings
1 star 2 stars 3 stars 4 stars 5 stars
comments

Steppin Away Tab

Artist- Stereomud
Song- Steppin Away
Tabber- Iconoclast

Intro- Gradually letting palm mute go
d|----------------------------------------------|
a|----------------------------------------------|
f|----------------------------------------------|
c|----------------------------------------------|
g|---5-3---5-3---5-3---5-3---5-3---5-3---5-3-5b-|
C|-0-----0-----0-----0-----0-----0-----0--------|

Verse
d|-------------------------------------------------------|
a|-------------------------------------------------------|
f|---------2---------3----------5--------2---------------|
c|--------------------------------------------5s7-----7--|
g|-5-5-3-5---5-5-3-5---5-5-3-5---5-5-3-5---5-5----5-5----|
C|-------------------------------------------------------|
   pm-----   pm-----   pm-----   pm-----   pm-    pm-
[ Tab from: http://www.guitartabs.cc/tabs/s/stereomud/steppin_away_tab.html ]
d|-------------------------------------------------------|
a|-------------------------------------------------------|
f|---------2---------3---------5--------2----------------|
c|--------------------------------------------5-----5----|
g|-5-5-3-5---5-5-3-5---5-5-3-5---5-5-3-5---5-5--5-5------|
C|-------------------------------------------------------|
   pm-----   pm-----   pm-----   pm-----   pm-  pm-

Chorus
d|--------------------------------------------------------|
a|--------------------------------------------------------|
f|--------------------------------------------------------|
c|------8-8-8-8-8-8-8-8-8-5-5-5-5-5-5-5-5-0-3-0-0-0-3-0-0-|
g|-8----8-8-8-8-8-8-8-8-8-5-5-5-5-5-5-5-5-0-3-0-0-0-3-0-0-|
C|---10-8-8-8-8-8-8-8-8-8-5-5-5-5-5-5-5-5-0-3-0-0-0-3-0-0-|

Pre-verse
d|-------------------------|
a|-------------------------|
f|-------------------------|
c|-10-8-10-12--------------|
g|--8-8--8--8--------------|
C|--8-8--8--8--------------|

Bridge (with wah)
d|-------------------------|
a|-------------------------|
f|-17-14-17-14-17----------|
c|--x--x--x--x--x----------|
g|-15-12-15-12-15----------|
C|-------------------------|

They play the pre-verse, then...
d|-------------------------|
a|-------------------------|
f|-------------------------|
c|-0-3-0-0-0-0-0-0-0-0-0---|
g|-0-3-0-0-0-0-0-0-0-0-0---|
C|-0-3-0-0-0-0-0-0-0-0-0---|

Enjoy.
Comments