Stereomud - Pain Chords & Tabs

 

Pain Chords & Tabs

Stereomud Chords & Tabs

Version: 3 Type: Tab 0 ratings
1 star 2 stars 3 stars 4 stars 5 stars
comments

Pain Tab

#-----------------------------------------------------------------------------#
#-- File created with Instab - http://www.pconline.com/~smcarey/instab.html --#
#-----------------------------------------------------------------------------#

Author/Artist: Stereomud
Title: Pain
Album: Perfect Self
Transcribed by: Sam James
Email: llama_of_death@hotmail.com

This might not be totally correct, but hell, It sure is close enough. And it let
s you play the song on one guitar. I'm not much for timing,
But it gives you a good enough idea. The song is played in Drop C. Can't figure 
out the solo.

-|--------------------------------------------------------------------------|-
-|----------7-7-7-7-7--5--5--5/7----------------7-7-7-7-7---5--5b-----------|-
-|----------x-x-x-x-x--x--x--x/x----------------x-x-x-x-x---x--xb-----------|-
-|-0*--0*---5-5-5-5-5--3--3--3/5-------0*--0*---5-5-5-5-5---3--3b-----------|-
-|-0*--0*------------------------------0*--0*-------------------------------|-
-|-0*--0*------------------------------0*--0*-------------------------------|-
   Both guitars     This is the Main riff.                                    

-|--------------------------------------------------------------------------|-
-|----3------3bbbbbbbbbbbb--------------------------------------------------|-
-|---------------------------------------2--------2bbbbbbbbbbb--------------|-
-|--------------------------------------------------------------------------|-
-|--------------------------------------------------------------------------|-
-|--------------------------------------------------------------------------|-
   Clean Tone on one guitar.     Below is the Prechorus...                    

-|--------------------------------------------------------------------------|-
-|--------------------------------------------------------------------------|-
-|--------------------------------------------------------------------------|-
-|--0---0----------------------------------0---0----------------------------|-
-|--0---0----------------------------------0---0----------------------------|-
-|--0---0----------------------------------0---0----------------------------|-
                                                                              

-|--------------------------------------------------------------------------|-
-|--------------------------------------------------------------------------|-
-|--------------------------------------------------------------------------|-
-|--8---8----------------------------------3---3----------------------------|-
-|--8---8----------------------------------3---3----------------------------|-
-|--8---8----------------------------------3---3-------3^------3^-----------|-
                                                                              
[ Tab from: http://www.guitartabs.cc/tabs/s/stereomud/pain_tab_ver_3.html ]
-|--------------------------------------------------------------------------|-
-|--------------------------------------------------------------------------|-
-|--------------------------------------------------------------------------|-
-|--5---5---------------------------------0---0-----------------------------|-
-|--5---5---------------------------------0---0-----------------------------|-
-|--5---5-----3^---------3^---------------0---0-----------------------------|-
                                                                              

-|--------------------------------------------------------------------------|-
-|--------------------------------------------------------------------------|-
-|--------------------------------------------------------------------------|-
-|--0---0---------------------------------8*--8*--8*--8*--8*--8-8-8-8-8-----|-
-|--0---0---------------------------------8*--8*--8*--8*--8*--8-8-8-8-8-----|-
-|--0---0---------------------------------8*--8*--8*--8*--8*--8-8-8-8-8-----|-
                                                                              

-|--------------------------------------------------------------------------|-
-|--------------------------------------------------------------------------|-
-|--------------------------------------------------------------------------|-
-|-3-3-3-3-----5--5-5-5--5b-------------------------------------------------|-
-|-3-3-3-3-----5--5-5-5--5b-------------------------------------------------|-
-|-3-3-3-3-----5--5-5-5--5b-------------------------------------------------|-
     Below is the chorus, It may be wrong, but it sounds close enough         

-|--------------------------------------------------------------------------|-
-|--------------------------------------------------------------------------|-
-|-7-7-7-7-7--5-5-5-5-5--10-10-10-10-10--5-5-5-5-5--12-12-12-12--14-14-14-14|-
-|-x-x-x-x-x--x-x-x-x-x--x--x--x--x--x---x-x-x-x-x--x--x--x--x---x--x--x--x-|-
-|-5-5-5-5-5--3-3-3-3-3--8--8--8--8--8---3-3-3-3-3--10-10-10-10--12-12-12-12|-
-|--------------------------------------------------------------------------|-
           Add the last part on the second time around, and let it ring       

-|-----------------------------------------------------------------|--------|-
-|-----------------------------------------------------------------|--------|-
-|-----------------------------------------------------------------|--------|-
-|-8-8-8-8-8-8-8-8-8-8-8-8-8-8-8---5-5-5-5-5----3-3-3-3----5-5-5-5-|-5------|-
-|-8-8-8-8-8-8-8-8-8-8-8-8-8-8-8---5-5-5-5-5----3-3-3-3----5-5-5-5-|-5------|-
-|-8-8-8-8-8-8-8-8-8-8-8-8-8-8-8---5-5-5-5-5----3-3-3-3----5-5-5-5-|-5------|-
      This is the alternate Chorus part when he yells "PAIN!"                 

-|----------------------------------------------------------------------------
-|----------------------------------------------------------------------------
-|--------7-7-7-7-7---5--5--5--5/7---------------7-7-7-7-7---5----5b----------
-|--------x-x-x-x-x---x--x--x--x/x---------------x-x-x-x-x---x----xb----------
-|--------5-5-5-5-5---3--3--3--3/5---------------5-5-5-5-5---3----3b----------
-|-0---0----------------------------------0---0-------------------------------
                                                                              

Comments