Steppenwolf - Magic Carpet Ride Chords & Tabs

 

Magic Carpet Ride Chords & Tabs

Steppenwolf Chords & Tabs

Version: 4 Type: Tab 0 ratings
1 star 2 stars 3 stars 4 stars 5 stars
comments

Magic Carpet Ride Tab

   
Magic Carpet Ride
Steppenwolf

Standard Tuning (E A D G B E)

   Underlying riff:
|-------------3-x-x-3------------------x-x-3-3---------|
|-7-7---5-5---3-x-x-3------7-7---5-5---x-x-3-3---------|
|-7-7---5-5---4-x-x-4------7-7---5-5---x-x-4-4---------|
|-7-7---5-5---5-x-x-5------7-7---5-5---x-x-5-5---------|
|-5-5---3-3---5-x-x-5------5-5---3-3---x-x-5-5---------|
|-------------3-x-x-3------------------x-x-3-3---------|

   Verse 1
I like to dream yes, yes, right between my sound machine
On a cloud of sound I drift in the night
Any place it goes is right
Goes far, flies near, to the stars away from here

   Chorus
Well, you don't know what we can find
Why don't you come with me little girl
On a magic carpet ride
You don't know what we can see
Why don't you tell your dreams to me
Fantasy will set you free
                                                                   
|-3----------------------6-----------------8-------|
|-3----------------------6-----------------8-------|
|-4----------------------7-----------------9-------|
|-5----------------------8-----------------10------|
|-5----------------------8-----------------10------|
|-3----------------------6-----------------8-------|
     Close your eyes girl, look inside girl, let the sound take you away

   Verse 2
Last night I held Aladdin's lamp
And so I wished that I could stay
Before the thing could answer me
Well, someone came and took the lamp away
I looked around, a lousy candle's all I found
[ Tab from: http://www.guitartabs.cc/tabs/s/steppenwolf/magic_carpet_ride_tab_ver_4.html ]
   Chorus
Well, you don't know what we can find
Why don't you come with me little girl
On a magic carpet ride
You don't know what we can see
Why don't you tell your dreams to me
Fantasy will set you free

|-3----------------------6-----------------8-------|
|-3----------------------6-----------------8-------|
|-4----------------------7-----------------9-------|
|-5----------------------8-----------------10------|
|-5----------------------8-----------------10------|
|-3----------------------6-----------------8-------|
     Close your eyes girl, look inside girl, let the sound take you away

Play this during the instrumental period
|-------------------------------------------------|
|-7h9-9-9-9--7-7-7-7------------------------------|
|-7h9-9-9-9--7-7-7-7------------------------------|
|-7h9-9-9-9--7-7-7-7------------------------------|
|-------------------------------------------------|
|-------------------------------------------------|

   Chorus
Well, you don't know what we can find
Why don't you come with me little girl
On a magic carpet ride
You don't know what we can see
Why don't you tell your dreams to me
Fantasy will set you free

|-3----------------------6-----------------8-------|
|-3----------------------6-----------------8-------|
|-4----------------------7-----------------9-------|
|-5----------------------8-----------------10------|
|-5----------------------8-----------------10------|
|-3----------------------6-----------------8-------|
     Close your eyes girl, look inside girl, let the sound take you away
Comments