Steppenwolf - Magic Carpet Ride Chords & Tabs

 

Magic Carpet Ride Chords & Tabs

Steppenwolf Chords & Tabs

Version: 3 Type: Tab 0 ratings
1 star 2 stars 3 stars 4 stars 5 stars
comments

Magic Carpet Ride Tab

I was looking through this site, and i saw that there arent many good tabs for this song,
so i thought that i'd post this up. I couldn't tab the intro, so here's the rest of the song.

Magic Carpet Ride
Standard tuning

Verse
e|-------------------
B|-------------------
G|--7-7--5-----------
D|--7-7--5-xx-5--5---      Play as many times as
A|--5-5--3-xx-5--5---      needed through the verse
E|---------xx-3--3---
    
Chorus
e|------------------------------------------------------------------
B|------------------------------------------------------------------
G|----------------------3----------------5--------------------------
D|-5--------------------3----------------5------------------------3-
A|-5--------------------1----------------3------------------------3-
E|-3--------------------------------------------------------------5-
   Close your eyes girl look inside girl let the sound take you away
[ Tab from: http://www.guitartabs.cc/tabs/s/steppenwolf/magic_carpet_ride_tab_ver_3.html ]
e|----------------
B|----------------
G|----------------  This is the part right after the chorus
D|-9-----7---7----
A|-----9---9---9--
E|----------------

I'll try tabbing the solo later. I cant tab it out right now.

here are the lyrics to the song:

I like to dream, yes yees
Right between the sound machine
On a cloud of sound I drift in the night
Every place she goes is right
Flies far, flies near
To the stars away from here
 
Well, you don't know what
We can find
Why don't you come with me little girl
On a magic carpet ride
 
Well, you don't know, what
We can find
Why don't you tell your dreams to me
Fantasy will set you free

CHORUS
Close your eyes girl
Look inside girl
Let the sound take you away
 
Last night I found Aladdin's lamp
So I wished that I could stay
But before the thing could answer me
Someone came and took the lamp away
 
I looked
Around
A lousy candle's all I found
 
Well, you don't know what
We can find
Why don't you come with me little girl
On a magic carpet ride
 
Well, you don't know what
We can see
Why don't you tell your dreams to me
Fantasy will set you free
Comments