Stephen Stills - Helplessly Hoping Chords & Tabs

 

Helplessly Hoping Chords & Tabs

Stephen Stills Chords & Tabs

Version: 1 Type: Tab 1 rating
1 star 2 stars 3 stars 4 stars 5 stars
comments

Helplessly Hoping Tab

#----------------------------------PLEASE NOTE---------------------------------#
#This file is the author's own work and represents their interpretation of the #
#song. You may only use this file for private study, scholarship, or research. #
#------------------------------------------------------------------------------##
Date: Tue, 14 Nov 1995 17:21:24 -0600
From: mkf@tiac.net (Matt Falkowski)
Subject: TAB: Stephen Stills "Helplessly Hoping"

"Helplessly Hoping"      Stephen Stills

Inspired by Mr. Stills 10th grade English teacher

Use the verse as the intro.  If there is no space between notes on the Tab
then use it as a hammer.

--------------------------------------------------------------------------3-
------1-------1-----01-------1-----1-------1-----01-------1-----0-------0---
----0-------0-------0------0-------0-----0-------0------0-------0-----0-----
--0-------0-------2-2-----2------2-2-----2-----2-2-----2------2-2-----2-----
0-0-----0---------0-------------0--------------3-------------3--------------
2---------------------------------------------------------------------------
------------------------
 Helplessly     hoping   

--3-----2-------2-----02-------2--------------------------------------------
--------0-----3-------3------3-------3---1-------1-----01-------1-----1-----
--1-----0-----0-----2-2-----2------2-2-----2---0-------0------0-------0-----
0-------0-----------0-------------0------------------2-2-----2------2-2-----
2-----2-2-----2--------------------------------------0-------------0--------
------3---------------------------------------------------------------------
------------------------
 

-----------------------------3-------3-----2-------2-----02-------2---------
----01-------1-----0-------0-------0-------0-----3-------3------3-------3---
-----------0-------0-----0-------0-------0-0-----0-----2-2-----2------2-2---
--2--------------2-2-----2-----0-0-----0---------------0-------------0------
----------------3--------------2--------------------------------------------
----------------------------------------------------------------------------
-----------------------
[ Tab from: http://www.guitartabs.cc/tabs/s/stephen_stills/helplessly_hoping_tab.html ]
---------------------------------------------------2--------2-----02-------2
----1-------1-----1-------1-----0-------0-----0-----0-----3--------3-----3--
-----3----0-------0-----0-------0-----0-------0-----0-----0-----2-2------2--
---2-2-----2----2-2-----2-----2-2-----2-----0-0-----0-----0-----0-----------
---0------------0-------------3-------------2-------------------------------
----------------------------------------------------------------------------
------------------------
                      good bye_______________________ (return to beginning)


BREAK:
----------------------------------------------------------------------------
----1-------1---1-------1---0-------0-----01-------1-----0-------0-----01---
----1-----0-----------0-------0---0-------0------0-------0-----0-------0----
--0-------0-----2-2---------2-2---------0-0-----0------2-2-----2-----0-0----
-0------2-2-----0---------2-3-------------------------0---------------------
-------0------------------------------------3----------------------------3--
------------------------
                       hello            

----------------------------------------------------------------------------
------0-------0-----01--------1-----0-------0-----01-----1-1-------1-----1--
-----1------0-------0-------0-------0-----0-------0------0-------2-------2--
---2-------22-----0-0-----0-------2-2-----2-----0-0-----0------2-------3-3--
---3-----3-3--------------------0-----------------------------0--------0----
---------0------------3-----------------------------3-----------------------
------------------------



----------------------------------1-----------------------------------------
------1-------1-----1-1-0-0-01-01-0-----------------------------------------
------------0-------0-------------------0-----------------------------------
------------3-----2-2-----2-------------------------------------------------
------------------3-------------3-3-2---------------------------------------
------------------------------------------3-3--3--3-------------------------
------------------------
                                 (to beginning)

Matt
mkf@tiac.net
Comments