Stephen Lynch - Superhero Chords & Tabs

 

Superhero Chords & Tabs

Stephen Lynch Chords & Tabs

Version: 1 Type: Tab 0 ratings
1 star 2 stars 3 stars 4 stars 5 stars
comments

Superhero Tab

Stephen Lynch
Superhero

E|------------------------------------------------------------------|
B|------------------------------------------------------------------|
G|-----5----------------------------------------------------5-5--5--|
D|-----5-------5--------5-5--5-5---------1--------5---------5-5--5--|
A|-3-3---0-----5--------5-5--5-5---------1--------5--0--3-3------3--|
E|---------3-3---0--3-3-3-3--3-3--0--3-3---0--3-3-------------------| x2
if I could be... a superhero....
[ Tab from: http://www.guitartabs.cc/tabs/s/stephen_lynch/superhero_tab.html ]
E|-----------------------------------|
B|-----------------------------------|
G|------------------------5-5--5-5---|
D|-----3--------5---------5-5--5-5---|
A|-----3--------5--0--3-3------3-3---|
E|-1-1---0--3-3----------------------| x2
And if I saw criminals trying to lie...

E|----------------------------------------------------------------------
B|----------------------------------------------------------------------
G|--------------------5--4---------------------------------------5-5-5-5
D|-----3--------5-----5--4--7------5-------5------3---------5----5-5-5-5
A|-----3--------5--0--3--2--7----5---5---5--------3---------5-0--3-3-3-3
E|-1-1---0--3-3-------------5--7-------7------1-1----0--3-3-------------
Id haul them off to jail in my awe-some-van...cuz I would be awesome man...


Play the parts over and over again cuz its the same throughout the song....
Comments