Stephen Lynch - Lullaby Chords & Tabs

 

Lullaby Chords & Tabs

Stephen Lynch Chords & Tabs

Version: 3 Type: Tab 0 ratings
1 star 2 stars 3 stars 4 stars 5 stars
comments

Lullaby Tab

Music X Tabs [http://www.mxtabs.net]
Stephen Lynch - lullaby


      					Verse 1

E-----------3---------------------------------------------------------------------------------------------|
B------6-------3------------------8----------------------------8-------------------------8----------------|
G---------------------------10---------10--------------10----------10------------10---------10------------|
D---------------------------------------------------------------------------------------------------------|
A---------------------6----------------------------8---------------------------6--------------------------|
E--3------------------------------------------------------------------------------------------------------|
play the above 6x. on the 3rd time lyrics start-
Hush little girl. Sweet, sweet baby don't cry tonight. Daddy's here and he'll sing you a soft lullaby tonight.

				        Pre- Chorus

E---------------------------------------------------------------------------------------------------------|
B----------------8----------------------8-----------------------8------------------------8----------------|
G----------10-------10-----------10--------10---------10--------10------------10---------10---------------|
D---------------------------------------------------------------------------------------------------------|
A--5-----------------------10----------------------6-----------------------8------------------------------|
E-------8-------------------------------------------------------------------------------------------------|
       Why 		can't 		 it 		 all 		                 be

E-----------6---------------------------------------------------------------------------------|
B------6--------6-----------------11----------------------8---------------------8-------------|
G---------------------------10---------10-----------10-------10---------10--------8-----------|
D---------------------------------------------------------------------------------------------|
A------------------------------------------------8--------------------------------------------|
E--6 -----------------10-----------------------------------------------8----------------------|
     like			it			was			before

E------------------------------------------------------------------------------------------------------|
B------------8----------------------8-------------------------8------------------------8---------------|
G------10-------10----------10----------10----------10---------10----------10-----------10-------------|
D------------------------------------------------------------------------------------------------------|
A-----------------------10------------------------6-----------------------8----------------------------|
E--8---------------------------------------------------------------------------------------------------|
     How		can		    I		     explain			why


E-----------6-----------------------------------------------------------------------------------------|
B------6---------6-------------------11------------------------11----------------------8--------------|
G------------------------------10----------10-----------10-----------10---------10--------10----------|
D-----------------------------------------------------------------------------------------------------|
A-----------------------8---------------------------8-------------------------------------------------|
E--6----------------------------------------------------------------------------8---------------------|
    mommy's		not		here		anymore
[ Tab from: http://www.guitartabs.cc/tabs/s/stephen_lynch/lullaby_tab_ver_3.html ]
E-----------------------------|
B-------------8---------------|
G-------10--------10----------|
D-----------------------------|
A--8----------------------8---|
E-----------------------------|

					Chorus

E-----------6------------------------------------------3------------------------------------------|
B------6--------6---------------8----------------6--------6----------------8----------------------|
G--------------------------10-------10-------------------------------10---------10----------------|
D-------------------------------------------------------------------------------------      play--| 4x
A----------------------8------------------------------------------6-------------------------------|
E--6-----------------------------------------3----------------------------------------------------|
    Cause daddy likes porno and $10 whores. Daddy gets wasted and robs liquor stores.
    Daddy likes rubbing against little boys on the bus. I think thats why your mommy left us.

play Verse 1    -     Hush little girl. There is no reason to fret tonight. Don't mind the smoke. Daddy 
wants to forget tonight.

Pre- Chorus  -  Soon it will all be like it was before. Any minute she will walk through that front door.

Chorus   -   But daddy plays poker and drinks lots of beer. Then he wants sex that involves mommy's rear. 
has soors on his genetals oozing with puss. I think thats wyh your mommy left us.
end the chorus with this    E--------------------------|
                  B-------------8----------------------|
                  G-------10--------10--       play----|   2x
                  D------------------------------------|
                  A--8---------------------------------|
                  E------------------------------------|


E---------------------------------------------------------------------------------------------------|
B------------8-----------------------8--------------------8----------------------8------------------|
G------10--------10----------10--------8---------10--------10----------10--------10----      play---|  2x
D---------------------------------------------------------------------------------------------------|
A--6-------------------------------------------8----------------------------------------------------|
E-------------------------6--------------------------------------------6----------------------------|
      Please 	don't 	        cry. 	I 	swear 		I'll 		try

E---------------------------------------------------------------------------------------------------|
B--------------8-------------------------8-----------------------8-----------------------8----------|
G-------10--------10------------10---------10-----------10--------10-----------10-------10----------|
D---------------------------------------------------------------------------------------------------|
A--6------------------------10------------------------8-----------------------8---------------------|
E---------------------------------------------------------------------------------------------------|
     to			be		here			by			your

E--------------------------------------------------------|
B------------8-----------------------8-------------------|
G------10-------10-----------10--------10----------------|
D--------------------------------------------------------|
A--8--------------------8------------------------8---8---|
E--------------------------------------------------------|
                             side

Chorus    -     Right after daddy gets home from the bar. Visits his booky and steels
    a new car. He'll drive to the strip club and if daddy plays his cards right he'll bring
    home you new mommy tonight laddy dy laddy dy..........

	-There it is. At first it's pretty hard but once you get the hang of it it isn't real hard.
Comments