Stephen Lynch - Dead Girlfriend Chords & Tabs

 

Dead Girlfriend Chords & Tabs

Stephen Lynch Chords & Tabs

Version: 1 Type: Tab 0 ratings
1 star 2 stars 3 stars 4 stars 5 stars
comments

Dead Girlfriend Tab

   
Stephen Lynch - Dead Girlfriend
This guy rules, he is the funniest person ever!

Intro:

e---0--0--0--0--0-----0--0--0---0--0--0----0--0--0--0--0------0--0--0----0--0--0-
B----0--0--0--0--0-----0--0------0--0-------0--0--0--0--0------0--0-------0--0---
G-----2--2--2--2--2-----2--2------2--2-------2--2--2--2--2------2--2-------2--2--
D--------------------------------------------------------------------------------
A-0-----------------3---------2----------0------------------3-----------2--------
E--------------------------------------------------------------------------------

[ Tab from: http://www.guitartabs.cc/tabs/s/stephen_lynch/dead_girlfriend_tab.html ]
e----0--0--0----0----0------------------------
B-----0--0-------0----0-----------------------
G------2--2-------2----2----------------------
D---------------------------------------------
A-0-------------------------------------------
E-------------1-----3-------------------------

Asus
e--0----------
B--0----------
G--2----------
D--2----------
A--0----------
E--0----------

G
e--3----------
B--3----------
G--0----------
D--0----------
A--2----------
E--3----------

C
e--0----------
B--1----------
G--0----------
D--2----------
A--3----------
E--0----------

Asus     G     C      Asus              Asus        G       C       Asus
I, lie next to her in the bed          She's the kind of girl I'd like to wed

ETC.... 
E is also in there, listen to the song to figure the rest out
E-mail me if you have any questions   jeremythegreat@aol.com
Comments