Stephen Fretwell - Emily Chords & Tabs

 

Emily Chords & Tabs

Stephen Fretwell Chords & Tabs

Version: 2 Type: Tab 0 ratings
1 star 2 stars 3 stars 4 stars 5 stars
comments

Emily Tab

   
song - emily
artist - stephen fretwell
no capo

hey guys, you very kind rating my first emily tab as a five star, but it was completely
wrong even if it did sound right, here i've re-done the tab, please check it out, after
seing him live i think i've got it perfect!

@ - any chord that has this sign after it, means, the strumming has been
    tabbed for you at the top
^ - up stroke
 - down stroke


chords
------

    E*  A*  E   D   B*  D*   D*7  
e||-4---0---0---2---0---0----12---||
B||-5---5---0---3---7---10---10---||
G||-4---6---1---2---8---11---11---||
D||-----7---2---0---9---12---12---||
A||-----0---2-------0---0----0----||
E||---------o---------------------||

     D@            E*@              D@2  
      ^         ^  ^ ^ ^        ^        
e||-2-2-2p0-|   |-5-5-5-4-0-|   |-2-2-0h2-0-0h2-0-||
B||-3-3-3---|   |-5-5-5-5-5-|   |-3-3-3---3-3---3-||
G||-2-2-2---|   |-4-4-4-4-4-|   |-2-2-2---2-2---2-||
D||-0-0-0---|   |-----------|   |-0-0-0---0-0---0-||
A||---------|   |-----------|   |-----------------||
E||---------|   |-----------|   |-----------------||

intro
-----

         part 1		
    ^  ^  ^ ^  ^ ^  ^
E||-5-5-5-4-0-0-0-0-0-0-0-|
B||-5-5-5-5-5-5-5-5-5-5-5-|
G||-4-4-4-4-4-4-4-4-4-4-4-|  x2
D||-----------------------|
A||-----------------------|
E||-----------------------|

         part 2
    ^  ^ ^ ^ ^  ^ ^ ^ ^  ^ ^ ^ ^  ^ ^  ^ ^ ^ ^  ^  ^
E||-5-5-5-4-0-5-5-5-4-0-5-5-5-4-0-0-0-0-0-0-0-0-0-0-0-0-0-0-||
B||-5-5-5-5-5-5-5-5-5-5-5-5-5-5-5-5-5-5-5-5-5-5-5-5-5-5-5-5-||
G||-4-4-4-4-4-4-4-4-4-4-4-4-4-4-4-4-4-4-4-4-4-4-4-4-4-4-4-4-||
D||---------------------------------------------------------||
A||---------------------------------------------------------||
E||---------------------------------------------------------||

verse1
------

A*                   E                     D@         E*@
You never were gonna change your mind were you emily.
A*                         E                      D@              E*@
You just sat back, took it all for you, there was nothing for me.
A*               E      D                    B*    D*   D*7
I didn't mean to prove, that all I can do is lose.

verse2
------
[ Tab from: http://www.guitartabs.cc/tabs/s/stephen_fretwell/emily_tab_ver_2.html ]
A*                 E                      D@                 E*@
Next time that you need me don't call you up emily.
A*                E                      D@                 E*@
I'm tired of your lies and your cheating ways with me.
A*                E        D                    B*    D*   D*7
And everytime you go, well please dont let me know.

chorus
------

A*                   E
Emily you still live inside of me.
A*                                E
And emily you were the fire in my tree.
A*               E     D           E
So if you should fall, please dont call.
A*              E      D                E
Next time you arrive i wont stay up all night.
    A*    E    D            E             intro (only do part 1 once)
Coz emily you, just look at you, you're a trajedy.

verse1
------

A*                   E                     D@          E*@
You never were gonna change your mind were you emily.
A*                         E                      D@                      E*@
You just sat back, took it all for you, there was nothing was there for me.
A*               E           D                     B*    D*   D*7
I didn't mean to prove, that all Im good for is to lose.

chorus
------

A*                   E
Emily you still live inside of me.
A*                                E
And emily you were the fire in my tree.
A*               E     D           E
So if you should fall, please dont call.
A*              E      D                E
Next time you arrive i wont stay up all night.
    A*    E    D            E             intro (only do part 1 once)
Coz emily you, just look at you, you're a trajedy.

outro
-----

A*                   E                     D@2             finish on A*
You never were gonna change your mind were you anyway.


If you have any queries or corrections about/for the tab feel free to e-mail me
(gevans001@hotmail.com) please leave some feedback in the comment section, would
love to hear what you think after re-doing the tab.
Comments