Stephen Fretwell - Bad Bad You Bad Bad Me Chords & Tabs

 

Bad Bad You Bad Bad Me Chords & Tabs

Stephen Fretwell Chords & Tabs

Version: 1 Type: Tab 0 ratings
1 star 2 stars 3 stars 4 stars 5 stars
comments

Bad Bad You Bad Bad Me Tab

   
song: bad bad you, bad bad me
artist: stephen fretwell

chrods used:
              E A D G B E
	      -----------
	C     - 3 2 0 1 0
	F     - - 3 2 1 0
	C*    - 3 2 3 1 0
	F*    - - 0 2 1 0
	C/B   - 2 - 0 1 0
	Am7   - 0 2 0 1 0

riff 1

    C
e||---------------------||
B||---1-----------------||
G||---0-----0-0h2p0-----||
D||---2-0h2---------2p0-||
A||-3-------------------||
E||---------------------||

riff 2

    C
e||-----------------------||
B||-----1-----------------||
G||-----0-----0-0h2p0-----||
D||---2---0h2---------2p0-||
A||-3---------------------||
E||-----------------------||

riff 3

    C
e||-------------------||
B||-------------------||
G||-------0-0h2-0-----||
D||---0h2---------2-0-||
A||-3-----------------||
E||-------------------||

riff 4

    C
e||-------------------||
B||-------------------||
G||-------0-0h2-0---0-||
D||---0h2---------2---||
A||-3-----------------||
E||-------------------||


intro
=====

riff 1 x2, riff 2, riff 1.

verse 1
=======

riff 3                       riff 4
  You look so danty darling crossing over the road
F                           F
to where the taxis wait in line. 
riff 3                       riff 4
  you move like violence darling your stuborn as they get me
F             F
everytime
[ Tab from: http://www.guitartabs.cc/tabs/s/stephen_fretwell/bad_bad_you_bad_bad_me_tab.html ]
chorus
======
C		         C*
  so come on over darling and bring those magazines
F			        	 F*            C
  and show me which one's your favourite floor bad bad you, 
        C/B			Am7           riff 3, riff 4
bad bad me is all we'll be left with, anyway.

verse 2
=======
C			       C
  the songs don't come so easy, and lines are getting 
F		   F
  shorter everytime.
C				  C
  but your heart beats so quickly, my hair it moving in the 
F	F
  nights you like.

chorus
======
C			  C*
  so sneak on over darling and bring those magazines 
F					 F*                C
  and show me which one's your favourite floor coz bad bad you,
        C/B			Am7	       riff 3, riff 4
bad bad me is all we'll be left with, anyway.

interlude
=========

F      F      riff 3      riff 4      F      F

chorus
======
C                        C*
  so come on over darling and bring those magazines
F                                        F*                 C
  and show me which one's your favourite floor, and bad bad you,
            C/B                     Am7           C
and bad bad me is all we'll be left with, anyway.
            C                C/B                     Am7     F
yes bad bad you, and bad bad me is all we'll be left with,
      C
anyway.

If you have any queries or corrections about/for the tab feel free to e-mail me (gevans001@hotmail.com)
Comments