Stephen Bishop - It Might Be You Chords & Tabs

 

It Might Be You Chords & Tabs

Stephen Bishop Chords & Tabs

Version: 6 Type: Tab 0 ratings
1 star 2 stars 3 stars 4 stars 5 stars
comments

It Might Be You Tab

   
Tabbed by:
Email:
[ Tab from: http://www.guitartabs.cc/tabs/s/stephen_bishop/it_might_be_you_tab_ver_6.html ]
Tuning:G-Bm-C-D7SUS
      G                               Bm
e|---------------------------------------------------------------------------|
B|---------------------------------------8-8/10--7---7/8\7~------------------|
G|--------------------4--5--5/7~-------7-------------------------------------|
D|-----------4--5--7---------------------------------------------------------|
A|----5---7------------------------------------------------------------------|
E|---------------------------------------------------------------------------|
      C                                D
e|------------10/12---10---7~----------7P8-7P8-------------------------------|
B|--------8-------------------------------------10~----7/8----7~-------------|
G|----7----------------------------------------------------------------------|
D|---------------------------------------------------------------------------|
A|---------------------------------------------------------------------------|
E|---------------------------------------------------------------------------|
Comments