Stephen Bishop - It Might Be You Chords & Tabs

 

It Might Be You Chords & Tabs

Stephen Bishop Chords & Tabs

Version: 5 Type: Tab 0 ratings
1 star 2 stars 3 stars 4 stars 5 stars
comments

It Might Be You Tab

Title: It Might Be You (Intro)
Artist: Stephen Bishop
Tabbed by: Jonah A. Cruz

This tab is so easy and I am recommending this for beginners (use this to practice
your plucking) Prefer to use a pick for tremendous sound.
Any suggestions or questions, feel free to email me. 

		 



|---3-----5-5h7---3-------|
|---3--3------------------|
|---0---------------------|
|-------------------------|
|-------------------------|
|-------------------------|
[ Tab from: http://www.guitartabs.cc/tabs/s/stephen_bishop/it_might_be_you_tab_ver_5.html ]
|---3-----5-5h7---3-------|
|---3--3------------------|
|---4---------------------|
|-------------------------|
|-------------------------|
|-------------------------|


|---3-----5-5h7---3-------|
|---3--3------------------|
|---5---------------------|
|-------------------------|
|-------------------------|
|-------------------------|

|---3--3--0h4-0---------------|
|---3--3--------------0h4----0-|
|------------------------------|
|------------------------------|
|------------------------------|
|------------------------------|

Please repeat.


Have a nice time playing this...
This really sounds great and accurate.
Comments