Stephen Bishop - It Might Be You Chords & Tabs

 

It Might Be You Chords & Tabs

Stephen Bishop Chords & Tabs

Version: 3 Type: Tab 0 ratings
1 star 2 stars 3 stars 4 stars 5 stars
comments

It Might Be You Tab

   
INTRO:
  G                               G(/B)
-----------3-----5------5/7--3-- -----------3-----5-----5/7--3--
-----3--------3----------------- -----3--------3----------------
--------4------------4---------- --------0-----------0----------
--5----------------------------- -------------------------------
-------------------------------- --2----------------------------
-------------------------------- -------------------------------

  C9                               D7sus
-----------3-----5------5/7--3-- -----------3-----3/5--3-------3-- 
-----3--------3----------------- -----1--------1----------3/5----- 
--------0------------0---------- --------2------------------------
-------------------------------- --0------------------------------
-------------------------------- ---------------------------------
--3----------------------------- ---------------------------------

VERSE:
Time..               i've been passing time watchin trains go by             
 G                          G(/B)                    C9
--------------3---------- --------------3-----3---- -------------0----------
--------0-----------0---- --------3--------0-----0- -------3-----------3----
-----0-----0-----0-----0- -----0-----0------------- ----0-----0-----0-----0-
------------------------- ------------------------- ------------------------
------------------------- --2---------------------- -3----------------------
--3---------------------- ------------------------- ------------------------

              all of my life               lyin      on the sand    watching
  D7sus                    G                         G(/B)
--------------3---------- -------------3----------- -------------3----------
--------1-----------1---- -------0-----------0----- -------3-----------3----
-----2-----2-----2-----2- ----0-----0-----0-----0-- ----0-----0-----0-----0-
--0---------------------- ------------------------- ------------------------
------------------------- ------------------------- -2----------------------
------------------------- -3----------------------- ------------------------

 sea birds fly                         wishing       there would be
  C9                       A7(/C#)                   G(/D)
--------------0---------- -------------0----------- -------------3---------- 
--------3-----------3---- -------2-----------2----- -------3-----------3----
-----0-----0-----0-----0- ----0-----0-----0-----0-- ----4-----4-----4-----4-
------------------------- ------------------------- -0----------------------
--3---------------------- -4----------------------- ------------------------
------------------------- ------------------------- ------------------------

          someone's waiting home  for me                         somethings
  D#dim7                   Em(9)                            A9
--------------2---------- -------------2--0-------- ------------------------
--------1-----------1---- -------0-----------0----- ---------2--------------
-----2-----2-----2-----2- ----0-----0-----------0-- ---------0--------------
--1---------------------- ------------------------- ------------------------
------------------------- ------------------------- ---------0--------------
------------------------- -0----------------------- ------------------------
[ Tab from: http://www.guitartabs.cc/tabs/s/stephen_bishop/it_might_be_you_tab_ver_3.html ]
tellin' me  it might be you
  Am7                  D               D9
--------------0----------- --2-3-2-----0----------- 
--------1-----------1----- ---------------3-----0-- 
-----0-----0-----0-------- ---------2--------2----- 
-----------------------0-- ------------------------
--0----------------------- ------------------------ 
-------------------------- ------------------------ 
CHORUS:
                So  many  quiet  walks  to  take 
  Em                                                Bm
--------------0---------- -------------0---------- -------------2----------
--------0-----------0---- -------0-----------0---- -------3-----------3----
-----0-----0-----0-----0- ----0-----0-----0-----0- ----4-----4-----4-----4-
------------------------- ------------------------ ------------------------
------------------------- ------------------------ ------------------------
--0---------------------- -0---------------------- -2----------------------

 so  many  dreams  to      wake             only   so     much  love   to
  Dm7                      Am7                      Cm7
--------------1---------- -------------0---------- -------------3----------
--------1-----------1---- -------1-----------1---- -------4-----------4----
-----2-----2-----2-----2- ----0-----0-----0-----0- ----3-----3-----3-----3-
--0---------------------- ------------------------ ------------------------
------------------------- -0---------------------- -3----------------------
------------------------- ------------------------ ------------------------

  make                    oh...
  G                        D(/F#)        Bm
--------------3---------- ----------2-------------2-- 
--------0-----------0---- -------3-------------3----- 
-----0-----0-----0-----0- ----2-------------4-------- 
------------------------- --------------------------- 
------------------------- ---------------2----------- 
--3---------------------- -2------------------------- 

                 I think  we're gonna  need      some time         maybe
  Em                       A7sus       A7            Dm7  
--------------0---------- ------------------------ -----------2------------
--------0-----------0---- -------3-----------2---- --------2---------2-----
-----0-----0-----0-----0- ----0-----0-----0-----0- -----2---------2-----2--
------------------------- ------------------------ --0---------------------
------------------------- -0-----------0---------- ------------------------
--0---------------------- ------------------------ ------------------------

 all    we  need   is      time
  G7                       Cm7
-----------1------------ --------------0----------- 
--------0---------0----- --------0-----------0-----
-----0---------0-----0-- -----0-----0-----0-----0-- 
------------------------ --------------------------
------------------------ --3----------------------- 
--3--------------------- -------------------------- 

         And    it's  tellin' me it might be you             all of my life
         Bm7    Em    Am7                 D
---3------------0-----------------0----------- --2-3-2------------------
---0------3-----0-----------1-----------1----- ------------3---------0--
---0------2--------------0-----0-----0-------- ---------2---------------
-------------------------------------------0-- -------------------------
---3------2-----------0----------------------- ---------------2--2------
----------------0----------------------------- -------------------------

submitted by:christian
Comments