Stephen Bishop - It Might Be You Chords & Tabs

 

It Might Be You Chords & Tabs

Stephen Bishop Chords & Tabs

Version: 10 Type: Tab

It Might Be You Tab

   
IT MIGHT BE YOU- STEPHEN BISHOP
TABBED BY: COMB@T33

INTRO
    G                                                        G/B
|---------------3----------5------5s7------------------3--------------5-------5s7---3- |
|------3---------------3-----------------------3------------------3------------------- |
|-----------4------4----------4---------------------0-------0-------------0----------- |
|--5---------------------------------------------------------------------------------- |
|------------------------------------------2------------------------------------------ |
|------------------------------------------------------------------------------------- |

     C9                                                            D7sus
|---------------3-----------5-------5s7----3----------------3----------3s5----3----------5- |
|-------3--------------3-----------------------------1---------------1---------------3s5--- |
|-----------0------0------------0------------------------2-------2------------------------- |
|-------------------------------------------------0---------------------------------------- |
|---3-------------------------------------------------------------------------------------- |
|------------------------------------------------------------------------------------------ |
[ Tab from: http://www.guitartabs.cc/tabs/s/stephen_bishop/it_might_be_you_tab_ver_10.html ]
    G                                                         G/B
|---------------3----------5------5s7------------------3--------------5-------5s7---3- |
|------3---------------3-----------------------3------------------3------------------- |
|-----------4------4----------4---------------------0-------0-------------0----------- |
|--5---------------------------------------------------------------------------------- |
|------------------------------------------2------------------------------------------ |
|------------------------------------------------------------------------------------- |

    C9                                                              D7sus
|---------------3-----------5-------5s7----3----------------3----------3s5----3----------5- |
|-------3--------------3-----------------------------1---------------1---------------3s5--- |
|-----------0------0------------0------------------------2-------2------------------------- |
|-------------------------------------------------0---------------------------------------- |
|---3-------------------------------------------------------------------------------------- |
|------------------------------------------------------------------------------------------ |

    G
|--------------------------------------------------------------------------- |
|----------------------------3----3---------------------------------3----3-- |
|-----------0-----------0------------------------0------------0------------- |
|-------0------0---4-------------------------0------0---4------------------- |
|----------------------------------------2--------------------------------2- |
|---3-----------------------------3----------------------------------------- |

   C9                                              G
|------------------------------------------------------------------------------ |
|--------------------------------3----3-----5---------------------------------- |
|-------------0-------------0--------------------5----4-----2-----0------0----- |
|---------0------0----4-------------------------------------------------------- |
|---3---------------------------------3----------0----------------------------- |
|----------------------------------------------------------------------------3- |