Step Up Frum Nothing - Hit By A Train Chords & Tabs

 

Hit By A Train Chords & Tabs

Step Up Frum Nothing Chords & Tabs

Version: 1 Type: Tab 0 ratings
1 star 2 stars 3 stars 4 stars 5 stars
comments

Hit By A Train Tab

“Hit By a Train”
Step up Frum Nothing
by Dallin Jolley

Intro: (x2)

e--------------------------------------|X
B--------------------------------------|X
G--------------------------------------|X
D---5----------------------------------|
A---3-(x16)----7---------5-------------|
E--------------5-(x8)----3-(x8)--------|



Verse 1: (x4)

e-----------------------------------------------------------|X    
B-----------------------------------------------------------|X
G-----------------------------------------------------------|X
D---5(x8)---------------------------------------------------|
A---3--------5-(x8)---3-(x8)---7-(x2)--5-(x2)---------------|
E------------3--------1--------5-------3--------------------|

Chorus 1: (x2)
[ Tab from: http://www.guitartabs.cc/tabs/s/step_up_frum_nothing/hit_by_a_train_tab.html ]
e-----------------------------------------------------------|X   
B-----------------------------------------------------------|X
G---5-------------------------------------------------------|
D---5 (x16)--5--------3--------7--------5-------------------|
A---3--------5-(x16)--3-(x16)--7-(x3)---5-(x13)-------------|
E------------3--------1--------5--------3-------------------|

Play Intro Once

Verse 2: Same
Chorus 2: Same

Slow Fill: (x1)
Pick Single Strings
e----------------------------------------------------------------|X    
B----------------------------------------------------------------|X
G----------------------------------------------------------------|X
D----5-5-5----------------------5-5-5----------------------------|
A---3-3-3---5-5-5---7-7-7--3---3-3-3----5-5-5----7-7-7---1-(hold)|
E----------3-3-3---5-5-5---1-----------3-3-3----5-5-5----3-------|

Chorus final: Same (a little faster)

Outro: 
e----------------------------------------|X    
B----------------------------------------|X
G----------------------------------------|X
D----------------------------------(hold)|
A--7-(x2)---5-(x2)---7-(x2)---5-(x2)--3--|
E--5--------3--------5--------3-------1--|
Comments