Stellastarr - Somewhere Across Forever Chords & Tabs

 

Somewhere Across Forever Chords & Tabs

Stellastarr Chords & Tabs

Version: 1 Type: Tab 0 ratings
1 star 2 stars 3 stars 4 stars 5 stars
comments

Somewhere Across Forever Tab

   
Stellastarr* - Somewhere Across Forever	
(Standard tuning)

Tabbed By James McLafferty
j_mclafferty@yahoo.co.uk

Gtr1 - Shawn
gtr2 - michael



Intro/ Rhythm fig 1
E  :----------------|----------------|
B  :----------------|----------------|
G  :2--2-xx4-4-xx7--|7---7-7--7-7---7|
D  :3--3-xx5-5-xx8--|8---8-8--8-8---8|
A  :3--3-xx5-5-xx8--|8---8-8--8-8---8|
E  :1--1-xx3-3-xx6--|6---6-6--6-6---6|
    F      G     Bb

Shawn plays this twice, then is joined by Gtr 2
playing power chords

Lead fill 1
E  :----------------| 
B  :----------------| 
G  :----------------| 
D  :----------------| 
A  :----------------| 
E  :6-5-6-5-6-5-----|
gtr 2 plays this at the end of the Bb


Verse
E  :------------------------|------------------------|----------------|
B  :------------------------|------------------------|----------------|
G  :------------------------|------------------------|----------------|
D  :------------------------|-5--5--5--5--5--5--5--5-|3-3-3-3-3-3-3-3-|
A  :-3--3--3--3--3--3--3--3-|-3--3--3--3--3--3--3--3-|1-1-1-1-1-1-1-1-|
E  :-1--1--1--1--1--1--1--1-|-*----------------------|----------------|
   :                        |                        |                |
E  :------------------------|------------------------|----------------|
B  :------------------------|------------------------|----------------|
G  :------------------------|------------------------|----------------|
D  :10-10-10-10-10-10-10-10-|10-10-10-10-10-10-10-10-|8-8-8-8-8-8-8-8-|
A  :-8--8--8--8--8--8--8--8-|10-10-10-10-10-10-10-10-|8-8-8-8-8-8-8-8-|
E  :-8--8--8--8--8--8--8--8-|-8--8--8--8--8--8--8--8-|6-6-6-6-6-6-6-6-|
     F/C                     C                        Bb
    
 
E  :------------------------|
B  :------------------------|
G  :------------------------|
D  :-5--5--5--5--5--5--5--5-|
A  :-3--3--3--3--3--3--3--3-|
E  :------------------------|
   :                        |
E  :------------------------|
B  :------------------------|
G  :------------------------|
D  :10-10-10-10-10-10-10-10-|
A  :10-10-10-10-10-10-10-10-|
E  :-8--8--8--8--8--8--8--8-|
     C

Then play rhythm Fig1 for chorus

The play verse Again

Lead fill 2                                           V 2nd time only
E  :13-12-13-12----------12-|13-12-13-12----------12-|13---------------|
B  :------------13-12-13----|------------13-12-13----|-----------------|
G  :------------------------|------------------------|-----------------|
D  :------------------------|------------------------|-----------------|
A  :------------------------|------------------------|-----------------|
E  :------------------------|------------------------|-----------------|
Shawn plays this twice over the verse chords

then play rhythm fig1 twice 

Solo
E  :13-12-13-12-13-12-13-12-|15-12-15-12-15-12-15-12-|
B  :------------------------|------------------------|
G  :------------------------|------------------------|
D  :------------------------|------------------------|
A  :------------------------|------------------------|
E  :------------------------|------------------------|
   :gtr1
   :
E  :-------------8----------|-------------8----------|
B  :----------------8-------|----------------8-------|
G  :-9-10-10-10-------10-10-|-9-10-10-10-------10-10-|
D  :------------------------|------------------------|
A  :------------------------|------------------------|
E  :------------------------|------------------------|
    gtr2


E  :17-12-17-12-17-12-17-12-|15-12-15-12-15-12-15-12-|
B  :------------------------|------------------------|
G  :------------------------|------------------------|
D  :------------------------|------------------------|
A  :------------------------|------------------------|
E  :------------------------|------------------------|
   :gtr1
E  :-------------8----------|------------------------|
B  :----------------8-------|------------------------|
G  :-9-10-10-10-------10-10-|-------------7--7--7--7-|
D  :------------------------|10-10-10-10-------------|
A  :------------------------|------------------------|
E  :------------------------|------------------------|
    gtr2

[ Tab from: http://www.guitartabs.cc/tabs/s/stellastarr/somewhere_across_forever_tab.html ]
E  :13-12-13-12----------12-|13-12-13-12----------12-| 
B  :------------13-12-13----|------------13-12-13----| 
G  :------------------------|------------------------| 
D  :------------------------|------------------------| 
A  :------------------------|------------------------| 
E  :------------------------|------------------------|
   :gtr1                    |                        |
E  :------------------------|------------------------|
B  :------------------------|------------------------|
G  :-9-10-10-10--9-10-10-10-|-9-10-10-10--9-10-10-10-|
D  :------------------------|------------------------|
A  :------------------------|------------------------|
E  :------------------------|------------------------|
    gtr2


E  :13-12-13-12----------12-|13-12-13-12-------------| 
B  :------------13-12-13----|------------13-15-13-12-| 
G  :------------------------|------------------------| 
D  :------------------------|------------------------| 
A  :------------------------|------------------------| 
E  :------------------------|------------------------|
   :gtr1                    |                        |
E  :------------------------|------------------------|
B  :------------------------|------------------------|
G  :-9-10-10-10--9-10-10-10-|-------------7--7--7--7-|
D  :------------------------|10-10-10-10-------------|
A  :------------------------|------------------------|
E  :------------------------|------------------------|
    gtr2



E  :13-12-13-12----------12-|13-12-13-12----------12-| 
B  :------------13-12-13----|------------13-12-13----| 
G  :------------------------|------------------------| 
D  :------------------------|------------------------| 
A  :------------------------|------------------------| 
E  :------------------------|------------------------|
   :gtr1                    |                        |
E  :------------------------|------------------------|
B  :------------------------|------------------------|
G  :------------------------|------------------------|
D  :12----------------------|14----------------------|
A  :------------------------|------------------------|
E  :10----------------------|12----------------------|
    gtr2


E  :13-12-13-12----------12-|13-12-13-12-------------| 
B  :------------13-12-13----|------------13-15-13-12-| 
G  :------------------------|------------------------| 
D  :------------------------|------------------------| 
A  :------------------------|------------------------| 
E  :------------------------|------------------------|
   :gtr 1                   |                        |
E  :------------------------|------------------------| 
B  :------------------------|------------------------| 
G  :------------------------|------------------------| 
D  :10----------------------|-8-----------7----------| 
A  :------------------------|------------------------| 
E  :-8----------------------|-6-----------5----------| 
    gtr2
 

E  :13-12-13-12----------12-|13-12-13-12----------12-| 
B  :------------13-12-13----|------------13-12-13----| 
G  :------------------------|------------------------| 
D  :------------------------|------------------------| 
A  :------------------------|------------------------| 
E  :------------------------|------------------------|
   :gtr1                    |                        |
E  :------------------------|------------------------|
B  :------------------------|------------------------|
G  :------------------------|------------------------|
D  :12----------------------|14----------------------|
A  :------------------------|------------------------|
E  :10----------------------|12----------------------|
    gtr2


E  :13-12-13-12----------12-|13--12--13--12-------------------| 
B  :------------13-12-13----|----------------13--15--13--12---| 
G  :------------------------|---------------------------------| 
D  :------------------------|---------------------------------| 
A  :------------------------|---------------------------------| 
E  :------------------------|---------------------------------|
   :gtr 1                   |                                 |
E  :------------------------|---------------------------------|
B  :------------------------|---------------------------------|
G  :------------------------|---17----17----17----15-15-15-\10|
D  :15----------------------|---------------------------------|
A  :------------------------|---15----15----15----13-13-13-\8-|
E  :13----------------------|---------------------------------|
    gtr2

lead fill 3
E  :20---20---19---20---|  
B  :--------------------| 
G  :--------------------| 
D  :--------------------|
A  :--------------------| 
E  :--------------------| 
gtr2

michael just plays this over verse bass
the verse guitar joins in and builds up a crescendo.
End on A F.
Comments