Stellastarr - Somewhere Across Forever Chords & Tabs

 

Somewhere Across Forever Chords & Tabs

Stellastarr Chords & Tabs

Version: 1 Type: Bass Tab

Somewhere Across Forever Bass Tab

So, I tried to get out the counts for the harder rhythms, but the alignment might have 
messed up on the site.  It should go back to the right way if you copy the tabs and paste 
onto Word in a 'courier new' font.  Nothing's too bad though, if you have trouble just
turn up the bass and listen to the beat, or if it gets too hard just play straight eigth 
except for the solo.

Enter with drums (0:07)

Verse:
   1+2 +3+4+ 1+2+3+4+
G|---------------------------|
D|---------------------------|
A|---------------------------|     x4
E|-1~1~33336~~5656565--------|

Chorus:
G|-------------------------------------|
D|-------------------------------------|
A|-88888888----------------------------|     x2
E|----------88888888-6666-666-88888888-|

Play Verse 4 times

Play Chorus 4 times

Bridge:
G|-------------------------------------|
D|-------------------------------------|
A|-88888888----------------------------|
E|----------88888888-66666666-88888888-|

Play Verse 4 times
[ Tab from: http://www.guitartabs.cc/tabs/s/stellastarr/somewhere_across_forever_btab.html ]
Guitar Solo:
   1+2+3+4+ ...
G|-------------------------------------|
D|-------------------------------------|
A|---888888----------------------------|
E|----------88888888-66666666-88888888-|
   1+2+3+ 4+ ...
G|------------------------------------------|
D|------------------------------------------|
A|---88-7h88--------------------------------|
E|-----------8888-7h88--6666-5h66--8888-888-|

   1+2+3+ a 4 +1+2+3+ a 4 +  1+2+3+ a 4 +  1+2+3+4+
G|-----------------------------------------------------|
D|-----------------------------------------------------|
A|---88-7h8p7h8----------------------------------------|   x2
E|-------------8888-7h8p7h8--6666-5h6p5h6--8888-888----|

G|-----------------------------------------------|
D|-----------------------------------------------|
A|---88-7h8p7h8----------------------------------|
E|-------------8888-7h8p7h8--6666-5h66--8888-888-|

   1+2+3+4+  1+2+3+4+ 1+2+3+4+ 1+2+3+4+
G|--------------------------------------|
D|--------------------------------------|
A|-8~8~-888-----------------------------|
E|-----------8888-888-66666666-88-8-888-|

   1+2+3+4+1+2+3+4+ 1+2+3+4+ 1+2+3+4+
G|------------------------------------|
D|------------------------------------|
A|-888888888--------------------------|
E|----------8888888-66666666-8888888~-|

Play to the end (9 times):              end note
G|-------------------------------------|---------|
D|-------------------------------------|---------|
A|-88888888----------------------------|-8~~~~~~-|
E|----------88888888-66666666-88888888-|---------|


Drop a comment if you have any questions or something to say.

It's disappointing really, because I couldn't find a single bass tab for this song 
online, that's why I tabbed it out.  Have fun with it, later.