Stellastarr - Pulp Song Chords & Tabs

 

Pulp Song Chords & Tabs

Stellastarr Chords & Tabs

Version: 1 Type: Tab 0 ratings
1 star 2 stars 3 stars 4 stars 5 stars
comments

Pulp Song Tab

   
Stellastarr* - Pulp Song
(Standard tuning)

Tabbed By James McLafferty
j_mclafferty@yahoo.co.uk

Chords
F5   - 13xxxx
C*   - x3xxxx
C5   - x35xxx
Bb5  - x13xxx
F    - 1332xx
Bb   - x1333x
C    - x3555x
 
Gtr1 - Michael
Gtr2 - Shawn


Intro
=======
 
    Intro Fig1
    F5
E  :----------------|-----------------|----------------|-----------------|
B  :----------------|-----------------|----------------|-----------------|
G  :----------------|-----------------|----------------|-----------------|
D  :----------------|-----------------|----------------|-----------------|
A  :3---3---3---3---|3---3---3---3-3-3|3---3---3---3---|3---3---3---3-3-3|
E  :1-1-1-1-1-1-1-1-|1-1-1-1-1-1-1-1-1|1-1-1-1-1-1-1-1-|1-1-1-1-1-1-1-1-1|

    |-Pm-----------------------------------------------------------------|  

This is heavily Palm muted all with down strokes, apart from the last 3
notes of bar 2 and 4, they are strummed plam muted triplets. It's much better 
if you listen, it is fairly simple.

Verse 
=======

Verse Fig1

    F5
E  :----------------|-----------------|----------------|-----------------|
B  :----------------|-----------------|----------------|-----------------|
G  :----------------|-----------------|----------------|-----------------|
D  :----------------|-----------------|----------------|-----------------|
A  :3---3---3---3---|3---3---3---3-3-3|3---3---3---3---|3---3---3---3-3-3|
E  :1-1-1-1-1-1-1-1-|1-1-1-1-1-1-1-1-1|1-1-1-1-1-1-1-1-|1-1-1-1-1-1-1-1-1|

    |-Pm-----------------------------------------------------------------|

    C*
E  :----------------|----------------|
B  :----------------|----------------|
G  :----------------|----------------|
D  :----------------|----------------|
A  :3-3-3-3-3-3-3-3-|3-3-3-3-3-3-3-3-|
E  :----------------|----------------|


F5
And we walked a thousand days 

There was nothing more to find 
C*
Million peoples in our way 

Million ways to loose our minds 

F5
Met a girl the other day 

Didnt know what i should say 
C*
Saw myself inside her eyes 

There was nothing more to find 

F5
We're lying 
We've lied to you 
Bb5           C5
We've lied to make our point of view 

(After this it is just chords stabs. Hit the chord twice at the 
 start of each bar. Again listen to the song if you're unsure)

F
Hello captain I have faith 
F
More than those who follow me 
C
If we strike them though their hearts 

Then their minds will set them free 
F
Met a girl the other year 
F
Didnt know who I should be 
C
Yeah 

Yeah 

[ Tab from: http://www.guitartabs.cc/tabs/s/stellastarr/pulp_song_tab.html ]
F
We're lying 
F
We've lied to you 
Bb            C
We've lied to make our point of view 
F
We're lying 
F
We've lied to say 
Bb         C
We plan to lie our lives away 

etc. I think you get the idea. The structure of the song doesnt alter from here on in 



Solo (2:17)
=======

    F5
E  :13-13-13-13-13-13-13-13-13-------------------|
B  :13-13-13-13-13-13-13-13-13-------------------|
G  :---------------------------14-14-14-14-12-12-|
D  :---------------------------------------------|
A  :---------------------------------------------|
E  :---------------------------------------------|

    F5
E  :13-13-13-13-13-13-13-13-13--------------------|
B  :13-13-13-13-13-13-13-13-13--------------------|
G  :---------------------------14-14-14-14-12-12\-|
D  :----------------------------------------------|
A  :----------------------------------------------|
E  :----------------------------------------------|

    C5  
E  :--------------------------------|-----------------------------|
B  :--------------------------------|-----------------------------|
G  :--2---2-3-3b(5)(5)(5)(5)(5)b3-2-|----------------------------0|
D  :3---3---------------------------|3-3-3-3-2-2-----0-0-2-2-3-3--|
A  :--------------------------------|------------3-3--------------|
E  :--------------------------------|-----------------------------|

    F5
E  :13-13-13-13-13-13-13-13-13------------------|
B  :13-13-13-13-13-13-13-13-13------------------|
G  :---------------------------14-14-14-14-12-12|
D  :--------------------------------------------|
A  :--------------------------------------------|
E  :--------------------------------------------|

    F5
E  :13-13-13-13-13-13-13-13-13-17-17-17-17-15-15-|
B  :13-13-13-13-13-13-13-13-13-------------------|
G  :---------------------------------------------|
D  :---------------------------------------------|
A  :---------------------------------------------|
E  :---------------------------------------------|

    C5
E  :---13-15----17-15----13-15----15----15----15-|
B  :13-13-13-13-13-13-13-13-13-13-13-13-13-13-13-|
G  :---------------------------------------------|
D  :---------------------------------------------|
A  :---------------------------------------------|
E  :---------------------------------------------|

    C5
E  :---13-15----17-15----13-15----15----15----15-|
B  :13-13-13-13-13-13-13-13-13-13-13-13-13-13-13-|
G  :---------------------------------------------|
D  :---------------------------------------------|
A  :---------------------------------------------|
E  :---------------------------------------------|
Comments