Stellastarr - Jenny Chords & Tabs

 

Jenny Chords & Tabs

Stellastarr Chords & Tabs

Version: 1 Type: Tab 0 ratings
1 star 2 stars 3 stars 4 stars 5 stars
comments

Jenny Tab

   
Stellastarr* - Jenny (Album version)	
(Standard tuning)

Tabbed By James McLafferty
j_mclafferty@yahoo.co.uk

Chords
E    - 0221xx
A5   - 577xxx
E5   - 022xxx
C#5  - x466xx
G#5  - 466xxx


Gtr1 - Shawn
gtr2 - michael



Intro/ Rhythm fig 1
    E
E  :----------------|----------------|----------------|
B  :----------------|----------------|----------------|
G  :9-9-9-9-9-9-9-9-|8-8-8-8-8-8-8-8-|6-6-6-6-6-6-6-6-|
D  :----------------|----------------|----------------|
A  :7-7-7-7-7-7-7-7-|6-6-6-6-6-6-6-6-|4-4-4-4-4-4-4-4-|
E  :0-0-0-0-0-0-0-0-|0-0-0-0-0-0-0-0-|0-0-0-0-0-0-0-0-|

E  :--------------------|
B  :--------------------|
G  :4-4-4-4-11-11-11-11-|
D  :--------------------|
A  :2-2-2-2--9--9--9--9-|
E  :0-0-0-0--0--0--0--0-|


Verse
    A5
E  :----------------|
B  :----------------|
G  :----------------|
D  :7-7-7-7-7-7-7-7-|
A  :7-7-7-7-7-7-7-7-|
E  :5-5-5-5-5-5-5-0-|
Michael and shawn just play this A power chord all through verse

Prechorus
    E
E  :----------------------|----------------------|
B  :----------------------|----------------------|
G  :9-9-9-9-9-11-13-14-13-|9-9-9-9-9-14-13-11-13-|
D  :----------------------|----------------------|
A  :7-7-7-7-7--9-11-12-11-|7-7-7-7-7-12-11--9-11-|
E  :----------------------|----------------------|
shawn plays this at the end of verse, 

michael plays a simlar melody in Emajor open postion
(This is on the left channel and is very hard to hear)
E  :----------------|----------------|
B  :----------------|----------------|
G  :----------------|--1-1-1-1-------|
D  :------------2-2-|2---------4---2-|
A  :----2-----------|----------------|
E  :0---------0-----|----------------|

Lead fill1 
E  :0-0-0-0-0-0-0-0-|
B  :5-5-4-4-5-5-4-4-|
G  :----------------|
D  :----------------|
A  :----------------|
E  :----------------|
Micael plays this the 2nd time, instead of the Emajor melody.

[ Tab from: http://www.guitartabs.cc/tabs/s/stellastarr/jenny_tab.html ]
Chorus
    E5      C#5      G#5     C#5
E  :----------------|----------------|
B  :----------------|----------------|
G  :--------6-6-6-6-|--------6*6*6*6*|
D  :2-2-2-2-6-6-6-6-|6-6-6-6-6*6*6*6*|
A  :2-2-2-2-4-4-4-4-|6-6-6-6-4*4*4*4*|
E  :0-0-0-0---------|4-4-4-4---------|
   :gtr1(clean with spring reverb)
E  :----------------|----------------|
B  :----------------|----------------|
G  :----------------|----------------|
D  :2---------------|----------------|
A  :2---------------|----------------|
E  :0---------------|----------------|
    gtr2(distorted)

the last four hits of the c#5 chord, shawn really
bashes them to get that sound.

Verse 2
Is same chord progression as first

Chorus 2

Lead fill2
E  :--------7-------|
B  :4-5-5-5---5-5-5-|
G  :----------------|
D  :----------------|
A  :----------------|
E  :----------------|

Michael plays this about (2:34)
plays that bar 3 times then:
E  :----------------|
B  :5-4-4-4-2-2-0-0-|
G  :----------------|
D  :----------------|
A  :----------------|
E  :----------------|
michael plays this all twice then at (2:45)

Lead fill3

E  :17-16-------17-16-------|17-16------------------------------|
B  :------17----------17----|------17----14----14----14----14-16|
G  :---------16----------16-|---------16----16----16----16------|
D  :------------------------|-----------------------------------|
A  :------------------------|-----------------------------------|
E  :------------------------|-----------------------------------|
after playing this he plays lead fill2 again
he plays through that all twice

then at (3:08)

Lead fill4
E  :------------19----------|
B  :16-17-17-17----17-17-17-|
G  :------------------------|
D  :------------------------|
A  :------------------------|
E  :------------------------|

play that bar 4 times then
E  :------------------------|
B  :17-16-16-16-14-14-12-12-|
G  :------------------------|
D  :------------------------|
A  :------------------------|
E  :------------------------|
this is basically lead fill2 up one octave




Outro (3:29)
    E5         C#5              G#5             C#5
E  :--------------------------|----------------------------|
B  :5----------9-------9------|-9-------9-------9------9-7-|
G  :7-b9------11-b13--11-b13--|11-b13--11-b13--11-b13------|
D  :--------------------------|----------------------------|
A  :--------------------------|----------------------------|
E  :--------------------------|----------------------------|
play this over distorted chorus chords

then after this it's a free for all with all fills coming in together 
for a cacophony of sound



Underneath there is four bars of this

E  :--------------------|
B  :5---------5---------|
G  :7-b9------7-b9------|
D  :--------------------|
A  :--------------------|
E  :--------------------|

then four bars of this

E  :------------------------|
B  :-9-----------9----------|
G  :11-b13------11-b13------|
D  :------------------------|
A  :------------------------|
E  :------------------------|
It ends on this.

Please e-mail me and let me know what you think.
Comments