Stellastarr - A Million Reasons Chords & Tabs

 

A Million Reasons Chords & Tabs

Stellastarr Chords & Tabs

Version: 1 Type: Tab 0 ratings
1 star 2 stars 3 stars 4 stars 5 stars
comments

A Million Reasons Tab

   
Stellastarr*
A Million Reasons 

intro bass riff (for guitar)

e---------------------------------
b---------------------------------
g---------------------------------
d-----------------7-5-------------
a------7------7-5-----5-7-5-7-----
e--8-8----8-8-----------------8-8-

intro lead guitar part

e-/8-----------------7------------ 
b----8-----------------8----------
g------/9-7-5-7p5h7------/7-54h5-
d---------------------------------
a---------------------------------
e---------------------------------

e-------------------------------------------------------------
b-------------------5-------------------5-------------------8-
g-5-5-5-5-5-5-5-5-7---5-5-5-5-5-5-5-5-7---7-7-7-7-7-7-7-7-9---
d-------------------------------------------------------------
a-------------------------------------------------------------
e-------------------------------------------------------------

e------------------------------------------
b-8-8-8-8-8-8-8-8-6-5--8-8-8-8-8-8-8-8-6-5-
g------------------------------------------ a few times
d------------------------------------------
a------------------------------------------
e------------------------------------------



intro rhythm guitar part
e---------------------------------------------------------
b---------------------------------------------------------
g---------------------------------------------------------
d---------------------------------------------------------
a---7---8-7---7---7---8-7-----2---3-2---2---0---2---3---2-
e-8---8-----8---8---8-----8/3---3-----3---1---1---1---1---

okay so Sean sings… shall we say... passionately... so the lyrics, 
I’m sure are wrong... but... it works.
[ Tab from: http://www.guitartabs.cc/tabs/s/stellastarr/a_million_reasons_tab.html ]
C                          G
when the shadows washed away
F                       C
I was painting larger ones
Larger than the canvasses
The canvasses I dreamed in

And I can’t understand when things turn gray
I’m not who I was in the morning
And there’s a million reasons that I’d like you to stay
Its hard to wonder the words while you’re falling

I run out the bedroom cos I can’t really breathe
A recurring fear of being tied down
I’d like to blame it on the artist in me
But there’s no one there, plus that’s bullshit

I’m going through films 
and pushing through crowds
And she knows that I’m looking for her
And I’m going through hell
Through the darkest side of myself
I only want what I can’t have

e-------------------------------------------
b-------------------------------------------
g-----------10-10-10-9-----------4-4-4-5-4--   a few times then
d--10-10-10------------10--5-5-5------------
a-------------------------------------------
e-------------------------------------------

e--------------------------------------------
b--------------------------------------------
g----------9-9-9-10-10-12-12-12-10-10-10-9-9-
d-10-10-10-----------------------------------
a--------------------------------------------
e--------------------------------------------

C     Am
Run ahead,
Don’t wait up 
just run 
run ahead
don’t wait up
           F          
cos I’ll follow you there
follow you there
       G
I’ll follow you there
Follow the ocean
F
Follow you there
Follow you there
     G          F   C
The road’s not far away

C
I only want
                  D
I only want it today
        F
I only want what I can’t have
C
I only
                  D
I only want it today
        F                    C
I only want what I can’t have
Comments