Stellar Kart - Superstar Chords & Tabs

 

Superstar Chords & Tabs

Stellar Kart Chords & Tabs

Version: 1 Type: Tab 0 ratings
1 star 2 stars 3 stars 4 stars 5 stars
comments

Superstar Tab

   
-----------------------------------------------------------------------------
			     Superstar - Stellar Kart
-----------------------------------------------------------------------------
Tabbed by: Rogue a.k.a. Robyn Geier
Email:robynother@hotmail.com

This is an awesome song by a great band, is super easy to play and sounds great.
I'm 100% sure the chords are right and pretty sure the riffs are.

Tuning: Standard

INTRO:
Guitar 1
(Distorted)
e|---------------------------------------------------------------------------|
B|---------------------------------------------------------------------------|
G|-7-------------------------------------------------------------------------|
D|-7-(let ring)--------------------------------------------------------------|
A|-5-------------------------------------------------------------------------|
E|---------------------------------------------------------------------------|

Guitar 2
(Clean)
e|--------------------------------------------------------------------------|
B|--------------------------------------------------------------------------|
G|--------------------------------------------------------------------------|
D|--------------------------------------------------------------------------|(x2)
A|---------------4-----4-----5-----5----------------------------------------|
E|-----------5-5---5-5---5-5---5-5------------------------------------------|
[ Tab from: http://www.guitartabs.cc/tabs/s/stellar_kart/superstar_tab.html ]
e|--------------------------------------------------------------------------|
B|--------------------------------------------------------------------------|
G|--------------------------------------------------------------------------|
D|--------------------------------------------------------------------------|
A|----7-----7-----5-----5-----4-----4-----5-----5---------------------------|
E|5-5---5-5---5-5---5-5---5-5---5-5---5-5---5-5-----------------------------|

VERSE:
Guitar 2 (no Guitar 1)
e|--------------------------------------------------------------------------|
B|--------------------------------------------------------------------------|
G|--------------------------------------------------------------------------|
D|---------------2----------2----------0------------------------------------|(x2)
A|----7-(x4)-------(x4)---2---(x4)-------(x4)-------------------------------|
E|5-5--------2-2--------0----------0-0--------------------------------------|

CHORUS:
Guitar 1
e|--------------------------------------------------------------------------|
B|--------------------------------------------------------------------------|
G|----------7-7-7-7---4-4-4-4-----------------------------------------------|
D|7-7-7-7---7-7-7-7---4-4-4-4---2-2-2-2-------------------------------------|(x2)
A|7-7-7-7---5-5-5-5---2-2-2-2---2-2-2-2-------------------------------------|
E|5-5-5-5-----------------------0-0-0-0-------------------------------------|
(On second time thru play last chord only once and let ring.)

(For an optional 2nd guitar, you can play these chords along with Guitar 1
during the chorus: A, D, B, E)

Repeat Intro

Repeat Verse

Repeat Chorus x2

BRIDGE:

e|--------------------------------------------------------------------------|
B|--------------------------------------------------------------------------|
G|--------------------7-----------------------------------------------------|
D|7---------4---------7-(x16)---2-------------------------------------------|
A|7-(x16)---4-(x16)---5---------2-(x16)-------------------------------------|
E|5---------2-------------------0-------------------------------------------|

For the OUTRO, just repeat the INTRO

And that's it! Have fun!~~~~~~~~~~~~~~~~~~~~~~~~~~~~~~~~~~~~~~~~~~~~~~~~~~~~~~~~~~~~~~~~~~~~~~~~~~~~~
Comments