Stellar Kart - Life Is Good Chords & Tabs

 

Life Is Good Chords & Tabs

Stellar Kart Chords & Tabs

Version: 1 Type: Tab

Life Is Good Tab

   
Intro (palm mute)

E|-------------------------------------------------------------|
B|-------------------------------------------------------------|
G|-------------------------------------------------------------|
D|-------------------------------------------------------------|
A|-4-4-4-4-4-4-4-4-4-4-4-4-4-4-4-4-4-4-4-4-4-4-4-4-4-4-4-4-4-4-|
E|-------------------------------------------------------------|

Main riff- guitar 1 (strumming)

E|-------------------------------------------------------------|
B|-------------------------------------------------------------|
G|-6-6---------------------------------------------------------|
D|-6-6--6-6--4-4--6-6------------------------------------------|
A|-4-4--6-6--2-2--6-6---(2x)-----------------------------------|
E|------4-4--2-2--4-4------------------------------------------|

Main riff- guitar 2
[ Tab from: http://www.guitartabs.cc/tabs/s/stellar_kart/life_is_good_tab.html ]
E|-------------------------------------------------------------|
B|-------------------------------------------------------------|
G|-------------------------------------------------------------|
D|-11-11--11-11--11-11--11-13-11---(2x)------------------------|
A|-------------------------------------------------------------|
E|-------------------------------------------------------------|

Verse 1

E|-------------------------------------------------------------|
B|-------------------------------------------------------------|
G|--6----------------------------------------------------------|
D|--6---(let ring, strum once 4 times)-------------------------|
A|--4----------------------------------------------------------|
E|-------------------------------------------------------------|

Chorus (strumming)

E|-------------------------------------------------------------|
B|-------------------------------------------------------------|
G|-666------11-888---------------------------------------------|
D|-666-666--11-888---(2x)--------------------------------------|
A|-444-666-999-666---------------------------------------------|
E|-----444-----------------------------------------------------|

Verse 2 (palm mute)

E|----------------------------------------------------------|
B|----------------------------------------------------------|
G|----------------------------------------------------------|
D|----------------------------------------------------------|
A|-4444------6666--------(4x)-------------------------------|
E|------4444------2222--------------------------------------|