Steel Pillow - Inside Chords & Tabs

 

Inside Chords & Tabs

Steel Pillow Chords & Tabs

Version: 1 Type: Tab 0 ratings
1 star 2 stars 3 stars 4 stars 5 stars
comments

Inside Tab

written by Barrett Moore
Performed by Steel Pillow
Tabbed by Barrett Moore

riff 1
1-----------------------------------------------------------
2-----------------------------------------------------------
3-----------------------------------------------------------
4----------77xx-5-55-xx5-xx555----------------------------  
5-0303-3^5-55xx-3-33-xx3-xx333------------------------------
6-----------------------------------------------------------

fill 1 
1-----------------------------------------------------------
2-----------------------------------------------------------
3-----------------------------------------------------------
4-5-4-2-----------------------------------------------------
5-3-2-0-----------------------------------------------------
6-----------------------------------------------------------

riff 2 (quick) 
1-----------------------------------------------------------
2-----------------------------------------------------------
3-----------------------------------------------------------
4-44xxx-7-77xx-4xxxx-9-999xx--------------------------------
5-22xxx-5-55xx-2xxxx-7-777xx--------------------------------
6-----------------------------------------------------------
 
riff 3 
1-----------------------------------------------------------
2-----------------------------------------------------------
3------5-55xx------5^7-7~---------------------------------- 
4-55xx-3-33xx-55xx-3^5-5~-----------------------------------
5-33xx--------33xx------------------------------------------
6-----------------------------------------------------------
 
riff 4
1-----------------------------------------------------------
2-----------------------------------------------------------
3----5-----5------------------------------------------------
4-5--3--5--3--5-5-------------------------------------------
5-300-00300-003030------------------------------------------
6-----------------------------------------------------------

fill 2
1-------------------0---------------------------------------
2-------------------0---------------------------------------
3-4p2p0-----------------------------------------------------
4------4p2p0------2-----------------------------------------
5-----------4p2p0-2-----------------------------------------
6-----------------0-----------------------------------------

solo
[ Tab from: http://www.guitartabs.cc/tabs/s/steel_pillow/inside_tab.html ]
1--------------------------------65-4h5-4h6p4-4-------------
2-5b-5b-5^3----------------------------------6-665454h5p4-- 
3-5b-5b-5^3-3~-----35-5b-35353~--------------------------53 
4----------5-----35-----------------------------------------
5---------------5-------------------------------------------
6-----------------------------------------------------------
 
1----------------------------------------------------------
2----------------------------------------------------------
3-355b-355b-35353~--3--------------------------------3h5p3
4--------------------5535-3h5p3-3---------3h5p3-3-3h5-----  
5------------------------------5-5353--3h5-----5------------
6-----------------------------------------------------------

1------------------3h6p3---3h6p3---3h6p3---3h6p3---3h6p3
2-------3h6p3-3-3h6-----3h6-----3h6-----3h6-----3h6----     
3--3-3h5-----5------------------------------------------
4-5-----------------------------------------------------
5-------------------------------------------------------
6-------------------------------------------------------
 
1----3h6p3-3-6p3-6p3-3-6p3-6p3-3-6p3-6p3-3---------------
2-3h6-----3---------6---------6---------6--635-3h5p3-3---
3---------------------------------------------------5-535
4--------------------------------------------------------
5--------------------------------------------------------
6--------------------------------------------------------

1-----------6p3-6p3-3-6p3-6p3-3-6p3-6p3-3----------------
2------------------6---------6---------6--635-3h5p3-3----
3-3h5-5p3p0----------------------------------------5--535
4--------------------------------------------------------
5--------------------------------------------------------
6--------------------------------------------------------

1-----------6p3-6p3-3-6p3-6p3-3-6p3-6p3-3-6p3-6-6^8-8-6-
2------------------6---------6---------6----------------
3-3h5-5p3p0---------------------------------------------
4-------------------------------------------------------
5-------------------------------------------------------
6-------------------------------------------------------

1-8p6-8^10-10-8h10p8-10^13-13-10h13p10-13^15~~~---------
2-------------------------------------------------------
3-------------------------------------------------------
4-------------------------------------------------------
5-------------------------------------------------------
6-------------------------------------------------------

fill 3
1-----------------------------------------------------------
2-----------------------------------------------------------
3-----------------------------------------------------------
4-9-999-7-777-5-555-4-444-2---------------------------------
5-7-777-5-555-3-333-4-444-2---------------------------------
6-------------------------0---------------------------------

order:
riff 1   x4
fill 1   x1
riff 2   x4
riff 3   x2
riff 4   x4
fill 2   x1
solo
riff 1   x2) 
riff 2   x2) )(slowly)
fill 3   x1)
Comments