Steel Dragon - Long Live Rock And Roll Chords & Tabs

 

Long Live Rock And Roll Chords & Tabs

Steel Dragon Chords & Tabs

Version: 1 Type: Tab 0 ratings
1 star 2 stars 3 stars 4 stars 5 stars
comments

Long Live Rock And Roll Tab

Play with the most distortion and volume possible with ur amp:

|------------------------------------------------------------|
|------------------------------------------------------------|
|------------------------------------------------------------|
|-------5--3-0---3-0-3-0-3--5----------5--3-0---3-0-3-0-3----|repeat
|--3-3--5--3-0---3-0-3-0-3--5----3-3---5--3-0---3-0-3-0-3--3-|
|--3-3---------------------------3-3-----------------------3-|
[ Tab from: http://www.guitartabs.cc/tabs/s/steel_dragon/long_live_rock_and_roll_tab.html ]
triky part
|---------------------------|-------|-----------------------|
|---------------------------|-------|-----------------------|
|---------------------------|-------|-----------------------|
|--------~4-----------------|-------|--4-2-4-2-4-2-4-2------|
|------------------4-2---0--|-------|-----------------------|
|--0-0------0-0-X-----------|---3~--|-----------------------|

|----------------------|------|-----------------------------|
|----------------------|--2---|-----------------------------|
|--2-------------2--4--|--4~--|-----------------------------|
|--0-----4-------0--2--|------|-----------------------------|
|-----2--2--4----------|------|---------------------2-3-4---|
|-----0-----2----------|------|-0-0-0-0--0-0-0-0----0-1-2---|


For the solos, just learn any scale and learn to play it FAST and
just go crazy with it. 
Comments