Steel Dragon - Livin The Life Chords & Tabs

 

Livin The Life Chords & Tabs

Steel Dragon Chords & Tabs

Version: 3 Type: Tab 0 ratings
1 star 2 stars 3 stars 4 stars 5 stars
comments

Livin The Life Tab

#----------------------------------PLEASE NOTE---------------------------------#
#This file is the author's own work and represents their interpretation of the #
#song. You may only use this file for private study, scholarship, or research. #
#------------------------------------------------------------------------------#
 Artist: Steel Dragon
 Song:   Livin' The Life
 Tab by Runken

e|------------------------------------------------------------------
H|------------------------------------------------------------------
G|------------------------------------------------------------------
D|------------------------------------------------------------------
A|---------------------------------------------------10-10-9--4-----
E|-x-x-x-x-x-x-x-x-x-x-x-x-x-x-x-x-x-x-x-x-x-x-x-x-x-8--8--7--2-----
[ Tab from: http://www.guitartabs.cc/tabs/s/steel_dragon/livin_the_life_tab_ver_3.html ]
e|------------------------------------------------------------------
H|------------------------------------------------------------------
G|------------------------------------------------------------------
D|---------------------------------------------------9~-------------
A|------------------------------------------------------10-10-9--4--
E|-x-x-x-x-x-x-x-x-x-x-x-x-x-x-x-x-x-x-x-x-x-x-x-x-x----8--8--7--2--

e|------------------------------------------------------------------
H|------------------------------------------------------------------
G|------------------------------------------------------------------
D|------------------------------------------------------------------  x2
A|-----------7-----------9-----------10-10-9--4---------------------
E|-x-x-x-x-x-5-x-x-x-x-x-7-x-x-x-x-x-8--8--7--2---------------------
Comments