Steadman - Revive Chords & Tabs

 

Revive Chords & Tabs

Steadman Chords & Tabs

Version: 1 Type: Tab 0 ratings
1 star 2 stars 3 stars 4 stars 5 stars
comments

Revive Tab

   
Revive by Steadman
Tabbed by Emcee3000

Standard eBGDAE

First Tab ever. No idea if this is right.
Please send corrections to emcee3000@hotmail.com

Intro: Am G Am G

Am		G
All I have to do
		Am
Is make life better
		G
I shall, but no one is around
Am		G		Am
Slowly make a move, away from knowing
		G
Silence has A sweeter sound

Pre-chorus
	Dm
What's better for me
G			Dm	G
Might not be better for you
				Dm	G
what can you do, what can you do

Chorus
	C	Am		E
Why won't you call my friend, Revive
	C	Am	E
Bring it all my friend, Revive
Am		G
What are we to do
	  Am
It takes forever and
	   G
yet it takes no time at all
Am		G
Let me introduce
	   Am 		    G
A view of heaven before we walk into a fall
[ Tab from: http://www.guitartabs.cc/tabs/s/steadman/revive_tab.html ]
Pre-chorus
	Dm
What's better for me
G			Dm	G
Might not be better for you
				Dm	G
what can you do, what can you do

Chorus
	C		Am	E
Why won't you call my friend, Revive
	C	Am	E
Bring it all my friend, Revive
	C	Am	E
Let it call my friend, Revive

Solo
e-----------------------------------------------------|
B-----------------------------------13-12-13----------|
G-9--12-14-9-7-6--9--12-14-9-7-6---------------9------|
D-----------------------------------------------------|
A-----------------------------------------------------|
E-----------------------------------------------------|

e-----------------------------------------------------|
B-------------------13-12-----------------------------|
G-----14-16-18--------------9-----18------------------|
D-----------------------------------------------------|
A-----------------------------------------------------|
E-----------------------------------------------------|

Etc.
Comments