Stavesacre - El Mariachi Chords & Tabs

 

El Mariachi Chords & Tabs

Stavesacre Chords & Tabs

Version: 3 Type: Tab 0 ratings
1 star 2 stars 3 stars 4 stars 5 stars
comments

El Mariachi Tab

It is in drop D tuning.  you know, DADGBE.


e-----------------------------------|
B-----------------------------------|
G-----------------------------------|
D----0--0---0-8---8--8-0--0---0-8---|
A----0--0---0-8---8--8-0--0---0-8---|
D----0--0---0-8---8--8-0--0---0-8---|

Listen to the song for the rythym.
It's not that hard to catch on.


Then the song breaks to this:
[ Tab from: http://www.guitartabs.cc/tabs/s/stavesacre/el_mariachi_tab_ver_3.html ]
"From my failer, fire is dying down inside of me"
e-----------------------------------------------|
B-----------------------------------------------|
G-----------------------------------------------|
D-------10------------------10-----------5------|     X2
A-----8-----8--0---0-0----8----8---------5------|
D---8-------------------8-------0-0-0-0--5------|

e-----------------------------------|
B-----------------------------------|
G-----------------------------------|
D---5-5-5-5-5-5-5-5-5-5---0-0-------|      X4
A---5-5-5-5-5-5-5-5-5-5---0-0-------|
D---5-5-5-5-5-5-5-5-5-5---0-0-------|


There is more to the song but this is all i have for now.
e-mail me if you have figured it out.

ickabod17@yahoo.com
Comments