Status Quo - Whatever You Want Chords & Tabs

 

Whatever You Want Chords & Tabs

Status Quo Chords & Tabs

Version: 3 Type: Tab 0 ratings
1 star 2 stars 3 stars 4 stars 5 stars
comments

Whatever You Want Tab

#----------------------------------PLEASE NOTE---------------------------------#
#This file is the author's own work and represents their interpretation of the #
#song. You may only use this file for private study, scholarship, or research. #
#------------------------------------------------------------------------------##
From: etlnbb@etlxdmx.ericsson.se (Neil Bergin)

		Whatever You Want intro

		      Status Quo


Tune bottom E down to a D.

Heads down and boogie...............


E|---3-----3-----------3-------2-----2-----3-----2-----|
B|-1---1-----1-0h1p0-----1-------3-----3-----3-----3---|
G|-------0-----------0-----0-------2-----------2-------|
D|---------------------------0-----------0-------------|
A|-----------------------------------------------------|
D|-----------------------------------------------------|

[ Tab from: http://www.guitartabs.cc/tabs/s/status_quo/whatever_you_want_tab_ver_3.html ]
E|---3-----3-----------3-------2-----2-----3-----2-----|
B|-1---1-----1-0h1p0-----1-------3-----3-----3-----3---|
G|-------0-----------0-----0-------2-----------2-------|
D|---------------------------0-----------0-------------|
A|-----------------------------------------------------|
D|-----------------------------------------------------|


E|------------------------------------5---------|
B|----3------3-----3-----3------------6---------|
G|------0------0-----0-----0----------7---------|
D|------------------------------------7---------|
A|--3-----3------2-----2--------------5---------|
D|---------------------------3-2-0-0------------|


E|-----------------------------------------------------|
B|-----------------------------------------------------|
G|-----------------------------------------------------|
D|-----------------------------------------------------|
A|------------3------------3------------3------------3-|
D|-0-00-00-00---0-00-00-00---0-00-00-00---0-00-00-00---|


E|-----------------------------------------------------|
B|-----------------------------------------------------|
G|-----------------------------------------------------|
D|-----------------------------------------------------|
A|------------3------------3------------3------------3-|
D|-0-00-00-00---0-00-00-00---0-00-00-00---0-00-00-00---|
Comments