Statistics - Spacemen Chords & Tabs

 

Spacemen Chords & Tabs

Statistics Chords & Tabs

Version: 2 Type: Tab 0 ratings
1 star 2 stars 3 stars 4 stars 5 stars
comments

Spacemen Tab

#----------------------------------PLEASE NOTE---------------------------------#
#This file is the author's own work and represents their interpretation of the #
#song. You may only use this file for private study, scholarship, or research. #
#------------------------------------------------------------------------------##
#

Date: Sun, 8 Sep 1996 20:52:55 -0400
From: splunket@vt.edu (Habib the Pimp Daddy)
Subject: the statistics_the Meat Monster_/_spacemen_tab.


gets ready to rock out........it's a monster...
part 1
|------------------------------------------------------------------------------|
|------------------------------------------------------------------------------|
|------------------------------------------------------------------------------|
|------------------7---------------------------------7-------------------------|
|-5-5-5-5--7-7-8-8---8\-------------5-5-5-5--7-7-8-8---8--10-10-10-11-11-11----|
|-----------------------5-5-5-5-5-5--------------------------------------------|

part 2
|------------------------------------------------------------------------------..
|-6--6---4-4-4-4---6--6------------|--11-.............-------------------------..
|-7--7---5-5-5-5---7--7---4-4-4-4--|--12-.............-------------------------..
|-7--7---5-5-5-5---7--7---5-5-5-5--|--12-.............-------------------------..
|-5--5---3-3-3-3---5--5---5-5-5-5--|--10---------------------------------------................end with this G
|-------------------------3-3-3-3--|-------------------------------------------..
[ Tab from: http://www.guitartabs.cc/tabs/s/statistics/spacemen_tab_ver_2.html ]
bridge
|------------------------------------------------------------------------------|
|------------------------------------------------------------------------------|
|------------------------------------------------------------------------------|
|---10---9--/14-14\--9-9-9-9-9-9-----------------------------------------------|
|-8----7----/12-12\--7-7-7-7-7-7-----------------------------------------------|
|------------------------------------------------------------------------------|

part 1 x 8
part 2 x 2
part 1 x 8
part 2 x 2
bridge x 8
part 2 x 2


when you're dead stay dead....spacemen

part 1
|-----------------------------------------------------------------------------|
|----8----------------------8-------------------------------------------------|
|----9----------------------9-------------------------------------------------|
|----9----------------------9-------------------------------------------------|
|----7----------------------7-------------------------------------------------|
|-0----5-5-5-5-8-8-8-7-7--0----5-5-5-5-8-8-8-10-10----------------------------|

part 2
|-----------------------------------------------------------------------------|
|-----------------------------------------------------------------------------|
|-----------------------------------------------------------------------------|
|-----------------------------------------------------------------------------|
|-0-0-0-0-2-2-2-3-3-3-7-7-7-8-8-8--0-0-0-0-2-2-2-3-3-3-7-7-7-8-8-7-7----------|
|-----------------------------------------------------------------------------|

bridge
|-----------------------------------------------------------------------------|
|-----------------------------------------------------------------------------|
|-----------------------------------------------------------------------------|
|-----------------------------------------------------------------------------|
|-0--2--3--0-2-3-0-2-3----------------3--2------------------------------------|
|----------------------1--3--5--1-3-5-----------------------------------------|

part 1 x8
part 2 x 4
part 1 x 8
part 2 x 4
brigde x 2
part 1 x 4
end


the statistics world domination head office.
Comments