Static X - Wisconsin Death Trip Chords & Tabs

 

Wisconsin Death Trip Chords & Tabs

Static X Chords & Tabs

Version: 4 Type: Tab 0 ratings
1 star 2 stars 3 stars 4 stars 5 stars
comments

Wisconsin Death Trip Tab

   
Static-X - Wisconsin Death Trip

Tabbed by Elvisz(elvisz@kornkids.com)

Here is the full tabs for the whole album...very simple, and sounds great...
hope you'll enjoy it...any corrections, suggestions, comments or anything,
mail me...

1)Push It
2)I'm With Stupid
3)Bled For Days
4)Love Dump
5)I Am
6)Otsegolation
7)Stem
8)Sweat Of The Bod
9)Fix
10)Wisconsin Death Trip
11)The Trance Is The Motion
12)December



Static-X - Push It - Wisconsin Death Trip

Tabbed by Elvisz(elvisz@kornkids.com)

Intro:
|-11---11----11---11----11---11----11---11----|
|--x----x-----x----x-----x----x-----x----x----|
|--8----8-----8----8-----8----8-----8----8----|
|---------------------------------------------|
|---------------------------------------------|
|----0----0~----0----0~----0----0~----0----0~-|

Verse:
|---------------------------------------|
|---------------------------------------|
|---------------------------------------|
|-223-2223-223-2223-223-2223-223-2223~~~|
|-223-2223-223-2223-223-2223-223-2223~~~|
|-223-2223-223-2223-223-2223-223-2223~~~|

|----------------------------11--11-----|
|-----------------------------x---x-----|
|-----------------------------8---8-----|
|-223-2223-223-2223-223-2223------------|
|-223-2223-223-2223-223-2223------------|
|-223-2223-223-2223-223-2223----0---0~~-|

Chorus:
|-------------------------------------|
|-------------------------------------|
|-------------------------------------|
|-223-2223-223-2223-223-2223-223-2232-|
|-223-2223-223-2223-223-2223-223-2232-|
|-223-2223-223-2223-223-2223-223-2232-|

|-------------------------------------|
|-------------------------------------|
|-------------------------------------|
|-223-2223-223-2223-223-2223-322-3223-|
|-223-2223-223-2223-223-2223-322-3223-|
|-223-2223-223-2223-223-2223-322-3223-|

Bridge1:
|-11---11----11---11----11---11----11---11----|
|--x----x-----x----x-----x----x-----x----x----|
|--8----8-----8----8-----8----8-----8----8----|
|---------------------------------------------|
|---------------------------------------------|
|----0----0~----0----0~----0----0~----0----0~-|

Bridge2:
|-----------^----------^----------^---------|
|---------17^--------17^--------17^---------|
|---------20^--------20^--------20^---------|
|-223-2223---223-2223---223-2223---223-2223-|
|-223-2223---223-2223---223-2223---223-2223-|
|-223-2223---223-2223---223-2223---223-2223-|

Bridge3:
|-11---11----11---11----11---11----11---11----|
|--x----x-----x----x-----x----x-----x----x----|
|--8----8-----8----8-----8----8-----8----8----|
|---------------------------------------------|
|---------------------------------------------|
|----0----0~----0----0~----0----0~----0----0~-|

Bridge4:
|----------------|
|----------------|
|----------------|
|-3~~~~~~1~~~~~~~|
|-3~~~~~~1~~~~~~~|
|-3~~~~~~1~~~~~~~|

Bridge5:
|-------------------------------------|
|-------------------------------------|
|-------------------------------------|
|-223-2223-223-2223-223-2223-223-2232-|
|-223-2223-223-2223-223-2223-223-2232-|
|-223-2223-223-2223-223-2223-223-2232-|

Bridge6:
|----------------|
|----------------|
|----------------|
|-3~~~~~~1~~~~~~~|
|-3~~~~~~1~~~~~~~|
|-3~~~~~~1~~~~~~~|

Chorus:
|-------------------------------------|
|-------------------------------------|
|-------------------------------------|
|-223-2223-223-2223-223-2223-223-2232-|
|-223-2223-223-2223-223-2223-223-2232-|
|-223-2223-223-2223-223-2223-223-2232-|

|-------------------------------------|
|-------------------------------------|
|-------------------------------------|
|-223-2223-223-2223-223-2223-322-3223-|
|-223-2223-223-2223-223-2223-322-3223-|
|-223-2223-223-2223-223-2223-322-3223-|





Static-X - I'm With Stupid - Wisconsin Death Trip

Tabbed by Elvisz(elvisz@kornkids.com)

Intro:
|----------------------------------|
|----------------------------------|
|----------------------------------|
|----------------------------------|
|-0-0010-00-0010-00-0010-0-00-13~~-|
|-0-0010-00-0010-00-0010-0-00-13~~-|

Verse:
|---------------------------------|
|---------------------------------|
|---------------------------------|
|---------------------------------|
|-2-2232-22-2232-22-2232-2-22-6~~-|
|-0-0010-00-0010-00-0010-0-00-6~~-|
  . .... .. .... .. .... . ..       . p.m.

Pre-verse:
|-------------------|
|-------------------|
|-------------------|
|-------------------|
|-2232-2232-2232-22-|
|-0010-0010-0010-00-|
  .... .... .... ..   . p.m.

Fill1:
|-------------------|
|-------------------|
|-------------------|
|-------------------|
|-X/////////////////|
|-X/////////////////|

Verse:
|---------------------------------|
|---------------------------------|
|---------------------------------|
|---------------------------------|
|-2-2232-22-2232-22-2232-2-22-6~~-|
|-0-0010-00-0010-00-0010-0-00-6~~-|
  . .... .. .... .. .... . ..       . p.m.

Chorus:
|----------------------------------|
|----------------------------------|
|----------------------------------|
|----------------------------------|
|-0-0010-00-0010-00-0010-0-00-13~~-|
|-0-0010-00-0010-00-0010-0-00-13~~-|

Pre-verse:
|-------------------|
|-------------------|
|-------------------|
|-------------------|
|-2232-2232-2232-22-|
|-0010-0010-0010-00-|
  .... .... .... ..   . p.m.

Verse:
|---------------------------------|
|---------------------------------|
|---------------------------------|
|---------------------------------|
|-2-2232-22-2232-22-2232-2-22-6~~-|
|-0-0010-00-0010-00-0010-0-00-6~~-|
  . .... .. .... .. .... . ..       . p.m.

Chorus:
|----------------------------------|
|----------------------------------|
|----------------------------------|
|----------------------------------|
|-0-0010-00-0010-00-0010-0-00-13~~-|
|-0-0010-00-0010-00-0010-0-00-13~~-|

Verse:
|---------------------------------|
|---------------------------------|
|---------------------------------|
|---------------------------------|
|-2-2232-22-2232-22-2232-2-22-6~~-|
|-0-0010-00-0010-00-0010-0-00-6~~-|
  . .... .. .... .. .... . ..       . p.m.

Chorus:
|----------------------------------|
|----------------------------------|
|----------------------------------|
|----------------------------------|
|-0-0010-00-0010-00-0010-0-00-13~~-|
|-0-0010-00-0010-00-0010-0-00-13~~-|

Bridge:
|-17-17--17--16-16--16--15--15-15--141413-|
|-21-21--21--20-20--20--19--19-19--181817-|
|-----------------------------------------|
|-----------------------------------------|
|-----------------------------------------|
|-----------------------------------------|

|-22-2222-2222-22-2222-2222-22-2222-2222-22-22-22-|
|-------------------------------------------------|
|-------------------------------------------------|
|-------------------------------------------------|
|-------------------------------------------------|
|-------------------------------------------------|

Chorus:
|----------------------------------|
|----------------------------------|
|----------------------------------|
|----------------------------------|
|-0-0010-00-0010-00-0010-0-00-13~~-|
|-0-0010-00-0010-00-0010-0-00-13~~-|

Outro:
|-------------------|
|-------------------|
|-------------------|
|-------------------|
|-2232-2232-2232-22-|
|-0010-0010-0010-00-|
  .... .... .... ..   . p.m.





Static-X - Bled For Days - Wisconsin Death Trip

Tabbed by Elvisz(elvisz@kornkids.com)

Intro:
|--------------|
|--------------|
|--------------|
|--4--4--4---4-|
|--4--4--4---4-|
|-02-02-02-0-2-|

Pre-verse:
|-------------|
|-------------|
|-------------|
|-5~~--5~~----|
|-5~~--5~~----|
|-3~~0-3~~0~~-|

Verse1:
|--------|
|--------|
|-----4~-|
|-4---5~-|
|-4---5~-|
|-2~~03~-|

Verse2:
|-----|
|-----|
|-----|
|-4~~-|
|-4~~-|
|-2~~-|

Verse1:
|--------|
|--------|
|-----4~-|
|-4---5~-|
|-4---5~-|
|-2~~03~-|

Pre-chorus:
|-----|
|-----|
|-----|
|-5~~-|
|-5~~-|
|-3~~-|

Chorus:
|------------------------------------------------------------------|
|------------------------------------------------------------------|
|-1111111111111111111111111111111112121212121212121212121212121212-|
|-xxxxxxxxxxxxxxxxxxxxxxxxxxxxxxxxxxxxxxxxxxxxxxxxxxxxxxxxxxxxxxxx-|
|- 9 9 9 9 9 9 9 9 9 9 9 9 9 9 9 910101010101010101010101010101010-|
|------------------------------------------------------------------|

Pre-chorus:
|-----|
|-----|
|-----|
|-5~~-|
|-5~~-|
|-3~~-|

Chorus:
|------------------------------------------------------------------|
|------------------------------------------------------------------|
|-1111111111111111111111111111111112121212121212121212121212121212-|
|-xxxxxxxxxxxxxxxxxxxxxxxxxxxxxxxxxxxxxxxxxxxxxxxxxxxxxxxxxxxxxxxx-|
|- 9 9 9 9 9 9 9 9 9 9 9 9 9 9 9 910101010101010101010101010101010-|
|------------------------------------------------------------------|

Intro again:
|--------------|
|--------------|
|--------------|
|--4--4--4---4-|
|--4--4--4---4-|
|-02-02-02-0-2-|

Verse2:
|-----|
|-----|
|-----|
|-4~~-|
|-4~~-|
|-2~~-|

Verse1:
|--------|
|--------|
|-----4~-|
|-4---5~-|
|-4---5~-|
|-2~~03~-|

Pre-verse:
|-------------|
|-------------|
|-------------|
|-5~~--5~~----|
|-5~~--5~~----|
|-3~~0-3~~0~~-|

Chorus:
|------------------------------------------------------------------|
|------------------------------------------------------------------|
|-1111111111111111111111111111111112121212121212121212121212121212-|
|-xxxxxxxxxxxxxxxxxxxxxxxxxxxxxxxxxxxxxxxxxxxxxxxxxxxxxxxxxxxxxxxx-|
|- 9 9 9 9 9 9 9 9 9 9 9 9 9 9 9 910101010101010101010101010101010-|
|------------------------------------------------------------------|

Intro again:
|--------------|
|--------------|
|--------------|
|--4--4--4---4-|
|--4--4--4---4-|
|-02-02-02-0-2-|

Chorus:
|------------------------------------------------------------------|
|------------------------------------------------------------------|
|-1111111111111111111111111111111112121212121212121212121212121212-|
|-xxxxxxxxxxxxxxxxxxxxxxxxxxxxxxxxxxxxxxxxxxxxxxxxxxxxxxxxxxxxxxxx-|
|- 9 9 9 9 9 9 9 9 9 9 9 9 9 9 9 910101010101010101010101010101010-|
|------------------------------------------------------------------|





Static-X - Love Dump - Wisconsin Death Trip

Tabbed by Elvisz(elvisz@kornkids.com)

Intro:
|-------|----------|
|-------|----------|
|-------|----------|
|-------|----------|
|-------|----------|
|-35555-|-33-35555-|

Pre-verse:
|-------|----------|----------------------------------|
|-------|----------|----------------------------------|
|-------|----------|-15151515151515151515151515151515-|
|-22222-|-22-22222-|-xxxxxxxxxxxxxxxxxxxxxxxxxxxxxxxx-|
|-22222-|-22-22222-|-13131313131313131313131313131313-|
|-00000-|-00-00000-|----------------------------------|
  .....   .. .....                                       . p.m.

|-------|----------|----------------------------------|
|-------|----------|----------------------------------|
|-------|----------|-15151515151515151515151516161616-|
|-22222-|-22-22222-|-xxxxxxxxxxxxxxxxxxxxxxxxxxxxxxxx-|
|-22222-|-22-22222-|-13131313131313131313131314141414-|
|-00000-|-00-00000-|----------------------------------|
  .....   .. .....                                       . p.m.

Verse:
(Guitar1)
|--------------------------------------------------|
|--------------------------------------------------|
|-999999999999999911111111111111111111111111111111-|
|-xxxxxxxxxxxxxxxxxxxxxxxxxxxxxxxxxxxxxxxxxxxxxxxx-|
|-7777777777777777 9 9 9 9 9 9 9 9 9 9 9 9 9 9 9 9-|
|--------------------------------------------------|

|------------------------------------------------------------------|
|------------------------------------------------------------------|
|-1212121212121212121212121212121214141414141414141414141414141414-|
|-xxxxxxxxxxxxxxxxxxxxxxxxxxxxxxxxxxxxxxxxxxxxxxxxxxxxxxxxxxxxxxxx-|
|-1010101010101010101010101010101012121212121212121212121212121212-|
|------------------------------------------------------------------|

(Guitar2)
|------------------------------------------------------------------|
|------------------------------------------------------------------|
|-1616161616161616161616161616161616161616161616161616161616161616-|
|-xxxxxxxxxxxxxxxxxxxxxxxxxxxxxxxxxxxxxxxxxxxxxxxxxxxxxxxxxxxxxxxx-|
|-1414141414141414141414141414141414141414141414141414141414141414-|
|------------------------------------------------------------------|

|------------------------------------------------------------------|
|------------------------------------------------------------------|
|-1717171717171717171717171717171719191919191919191919191919191919-|
|-xxxxxxxxxxxxxxxxxxxxxxxxxxxxxxxxxxxxxxxxxxxxxxxxxxxxxxxxxxxxxxxx-|
|-1515151515151515151515151515151517171717171717171717171717171717-|
|------------------------------------------------------------------|

Chorus:
|-------|
|-------|
|-------|
|-22222-|
|-22222-|
|-00000-|
  .....   . p.m.

Intro again:
|-------|----------|
|-------|----------|
|-------|----------|
|-------|----------|
|-------|----------|
|-35555-|-33-35555-|

Pre-verse:
|-------|----------|
|-------|----------|
|-------|----------|
|-22222-|-22-22222-|
|-22222-|-22-22222-|
|-00000-|-00-00000-|
  .....   .. .....   . p.m.

Intro again:
|-------|----------|
|-------|----------|
|-------|----------|
|-------|----------|
|-------|----------|
|-35555-|-33-35555-|

Pre-verse:
|-------|----------|
|-------|----------|
|-------|----------|
|-22222-|-22-22222-|
|-22222-|-22-22222-|
|-00000-|-00-00000-|
  .....   .. .....   . p.m.

Bridge:
|-------|----------|
|-------|----------|
|-------|----------|
|-57777-|-55-57777-|
|-57777-|-55-57777-|
|-35555-|-33-35555-|

Chorus:
|-------|
|-------|
|-------|
|-22222-|
|-22222-|
|-00000-|
  .....   . p.m.

Verse:
(Guitar1)
|--------------------------------------------------|
|--------------------------------------------------|
|-999999999999999911111111111111111111111111111111-|
|-xxxxxxxxxxxxxxxxxxxxxxxxxxxxxxxxxxxxxxxxxxxxxxxx-|
|-7777777777777777 9 9 9 9 9 9 9 9 9 9 9 9 9 9 9 9-|
|--------------------------------------------------|

|------------------------------------------------------------------|
|------------------------------------------------------------------|
|-1212121212121212121212121212121214141414141414141414141414141414-|
|-xxxxxxxxxxxxxxxxxxxxxxxxxxxxxxxxxxxxxxxxxxxxxxxxxxxxxxxxxxxxxxxx-|
|-1010101010101010101010101010101012121212121212121212121212121212-|
|------------------------------------------------------------------|

(Guitar2)
|------------------------------------------------------------------|
|------------------------------------------------------------------|
|-1616161616161616161616161616161616161616161616161616161616161616-|
|-xxxxxxxxxxxxxxxxxxxxxxxxxxxxxxxxxxxxxxxxxxxxxxxxxxxxxxxxxxxxxxxx-|
|-1414141414141414141414141414141414141414141414141414141414141414-|
|------------------------------------------------------------------|

|------------------------------------------------------------------|
|------------------------------------------------------------------|
|-1717171717171717171717171717171719191919191919191919191919191919-|
|-xxxxxxxxxxxxxxxxxxxxxxxxxxxxxxxxxxxxxxxxxxxxxxxxxxxxxxxxxxxxxxxx-|
|-1515151515151515151515151515151517171717171717171717171717171717-|
|------------------------------------------------------------------|

Pre-verse:
|-------|----------|----------------------------------|
|-------|----------|----------------------------------|
|-------|----------|-15151515151515151515151515151515-|
|-22222-|-22-22222-|-xxxxxxxxxxxxxxxxxxxxxxxxxxxxxxxx-|
|-22222-|-22-22222-|-13131313131313131313131313131313-|
|-00000-|-00-00000-|----------------------------------|
  .....   .. .....                                       . p.m.

|-------|----------|----------------------------------|
|-------|----------|----------------------------------|
|-------|----------|-15151515151515151515151516161616-|
|-22222-|-22-22222-|-xxxxxxxxxxxxxxxxxxxxxxxxxxxxxxxx-|
|-22222-|-22-22222-|-13131313131313131313131314141414-|
|-00000-|-00-00000-|----------------------------------|
  .....   .. .....                                       . p.m.

Verse:
(Guitar1)
|--------------------------------------------------|
|--------------------------------------------------|
|-999999999999999911111111111111111111111111111111-|
|-xxxxxxxxxxxxxxxxxxxxxxxxxxxxxxxxxxxxxxxxxxxxxxxx-|
|-7777777777777777 9 9 9 9 9 9 9 9 9 9 9 9 9 9 9 9-|
|--------------------------------------------------|

|------------------------------------------------------------------|
|------------------------------------------------------------------|
|-1212121212121212121212121212121214141414141414141414141414141414-|
|-xxxxxxxxxxxxxxxxxxxxxxxxxxxxxxxxxxxxxxxxxxxxxxxxxxxxxxxxxxxxxxxx-|
|-1010101010101010101010101010101012121212121212121212121212121212-|
|------------------------------------------------------------------|

(Guitar2)
|------------------------------------------------------------------|
|------------------------------------------------------------------|
|-1616161616161616161616161616161616161616161616161616161616161616-|
|-xxxxxxxxxxxxxxxxxxxxxxxxxxxxxxxxxxxxxxxxxxxxxxxxxxxxxxxxxxxxxxxx-|
|-1414141414141414141414141414141414141414141414141414141414141414-|
|------------------------------------------------------------------|

|------------------------------------------------------------------|
|------------------------------------------------------------------|
|-1717171717171717171717171717171719191919191919191919191919191919-|
|-xxxxxxxxxxxxxxxxxxxxxxxxxxxxxxxxxxxxxxxxxxxxxxxxxxxxxxxxxxxxxxxx-|
|-1515151515151515151515151515151517171717171717171717171717171717-|
|------------------------------------------------------------------|

Outro:
|-------|----------|----------------------------------|
|-------|----------|----------------------------------|
|-------|----------|-15151515151515151515151515151515-|
|-22222-|-22-22222-|-xxxxxxxxxxxxxxxxxxxxxxxxxxxxxxxx-|
|-22222-|-22-22222-|-13131313131313131313131313131313-|
|-00000-|-00-00000-|----------------------------------|
  .....   .. .....                                       . p.m.

|-------|----------|
|-------|----------|
|-------|----------|
|-22222-|-22-22222-|
|-22222-|-22-22222-|
|-00000-|-00-00000-|
  .....   .. .....   . p.m.





Static-X - I Am - Wisconsin Death Trip

Tabbed by Elvisz(elvisz@kornkids.com)

Intro:
|-----------------------------------------------------------|
|-----------------------------------------------------------|
|-XX-XXXXXXXXXX--XX-XXXXXXXXXX--XX-XXXXXXXXXX-XX-XXXXXXXXXX-|
|-XX-XXXXXXXXXX--XX-XXXXXXXXXX--XX-XXXXXXXXXX-XX-XXXXXXXXXX-|
|-XX-XXXXXXXXXX--XX-XXXXXXXXXX--XX-XXXXXXXXXX-XX-XXXXXXXXXX-|
|-XX-XXXXXXXXXX--XX-XXXXXXXXXX--XX-XXXXXXXXXX-XX-XXXXXXXXXX-|
     \\\ //////     //////////     //////////    ////////// 

|-----------------------------------------------------------|
|-----------------------------------------------------------|
|-XX-XXXXXXXXXX--XX-XXXXXXXXXX--XX-XXXXXXXXXX-XX-XXXXXXXXXX-|
|-XX-XXXXXXXXXX--XX-XXXXXXXXXX--XX-XXXXXXXXXX-XX-XXXXXXXXXX-|
|-XX-XXXXXXXXXX--XX-XXXXXXXXXX--XX-XXXXXXXXXX-XX-XXXXXXXXXX-|
|-XX-XXXXXXXXXX--XX-XXXXXXXXXX--XX-XXXXXXXXXX-XX-XXXXXXXXXX-|
     /// \\\\\\     \\\\\\\\\\      \\\\\\\\\    \\\\\\\\\\ 

Pre-verse:
|------------------|--------------|
|------------------|--------------|
|-----12~------12~-|-----12~------|
|-----xx-------xx--|-----xx-------|
|-----10~------10~-|-----10~------|
|-0-0-----0-00-----|-0-0-----0-00-|
  . .     . ..       . .     . ..   . p.m.
[ Tab from: http://www.guitartabs.cc/tabs/s/static_x/wisconsin_death_trip_tab_ver_4.html ]
Verse:
|-----|------------|
|-----|------------|
|-----|------------|
|-3-2-|-3-2--2-2-2-|
|-3-2-|-3-2--2-2-2-|
|-1-0-|-1-0--0-0-0-|

Chorus:
|---------------------------------------------------------------------------------|
|---------------------------------------------------------------------------------|
|------7~7~------7~7~------7~7~---------------7~7~------7~7~------7~7~------------|
|-3-22-x-x-3-22--x-x--3-22-x-x--3-22-3/4/5-22-x-x--3-22-x-x--3-22-x-x--3-22-3/4/5-|
|-3-22-5~5~3-22--5~5~-3-22-5~5~-3-22-3/4/5-22-5~5~-3-22-5~5~-3-22-5~5~-3-22-3/4/5-|
|-1-00-----1-00-------1-00------1-00-1/2/3-00------1-00------1-00------1-00-1/2/3-|

Pre-verse:
|------------------|--------------|
|------------------|--------------|
|-----12~------12~-|-----12~------|
|-----xx-------xx--|-----xx-------|
|-----10~------10~-|-----10~------|
|-0-0-----0-00-----|-0-0-----0-00-|
  . .     . ..       . .     . ..   . p.m.

Verse:
|-----|------------|
|-----|------------|
|-----|------------|
|-3-2-|-3-2--2-2-2-|
|-3-2-|-3-2--2-2-2-|
|-1-0-|-1-0--0-0-0-|

Chorus:
|---------------------------------------------------------------------------------|
|---------------------------------------------------------------------------------|
|------7~7~------7~7~------7~7~---------------7~7~------7~7~------7~7~------------|
|-3-22-x-x-3-22--x-x--3-22-x-x--3-22-3/4/5-22-x-x--3-22-x-x--3-22-x-x--3-22-3/4/5-|
|-3-22-5~5~3-22--5~5~-3-22-5~5~-3-22-3/4/5-22-5~5~-3-22-5~5~-3-22-5~5~-3-22-3/4/5-|
|-1-00-----1-00-------1-00------1-00-1/2/3-00------1-00------1-00------1-00-1/2/3-|

Bridge:
|-----------------------------------------------------------|
|-----------------------------------------------------------|
|-XX-XXXXXXXXXX--XX-XXXXXXXXXX--XX-XXXXXXXXXX-XX-XXXXXXXXXX-|
|-XX-XXXXXXXXXX--XX-XXXXXXXXXX--XX-XXXXXXXXXX-XX-XXXXXXXXXX-|
|-XX-XXXXXXXXXX--XX-XXXXXXXXXX--XX-XXXXXXXXXX-XX-XXXXXXXXXX-|
|-XX-XXXXXXXXXX--XX-XXXXXXXXXX--XX-XXXXXXXXXX-XX-XXXXXXXXXX-|
     \\\ //////     //////////     //////////    ////////// 

|-----------------------------------------------------------|
|-----------------------------------------------------------|
|-XX-XXXXXXXXXX--XX-XXXXXXXXXX--XX-XXXXXXXXXX-XX-XXXXXXXXXX-|
|-XX-XXXXXXXXXX--XX-XXXXXXXXXX--XX-XXXXXXXXXX-XX-XXXXXXXXXX-|
|-XX-XXXXXXXXXX--XX-XXXXXXXXXX--XX-XXXXXXXXXX-XX-XXXXXXXXXX-|
|-XX-XXXXXXXXXX--XX-XXXXXXXXXX--XX-XXXXXXXXXX-XX-XXXXXXXXXX-|
     /// \\\\\\     \\\\\\\\\\      \\\\\\\\\    \\\\\\\\\\ 

Verse:
|-----|------------|
|-----|------------|
|-----|------------|
|-3-2-|-3-2--2-2-2-|
|-3-2-|-3-2--2-2-2-|
|-1-0-|-1-0--0-0-0-|

Pre-verse:
|------------------|--------------|
|------------------|--------------|
|-----12~------12~-|-----12~------|
|-----xx-------xx--|-----xx-------|
|-----10~------10~-|-----10~------|
|-0-0-----0-00-----|-0-0-----0-00-|
  . .     . ..       . .     . ..   . p.m.

Chorus:
|---------------------------------------------------------------------------------|
|---------------------------------------------------------------------------------|
|------7~7~------7~7~------7~7~---------------7~7~------7~7~------7~7~------------|
|-3-22-x-x-3-22--x-x--3-22-x-x--3-22-3/4/5-22-x-x--3-22-x-x--3-22-x-x--3-22-3/4/5-|
|-3-22-5~5~3-22--5~5~-3-22-5~5~-3-22-3/4/5-22-5~5~-3-22-5~5~-3-22-5~5~-3-22-3/4/5-|
|-1-00-----1-00-------1-00------1-00-1/2/3-00------1-00------1-00------1-00-1/2/3-|

Outro:
|------------|
|------------|
|------------|
|-22--222222-|
|-22--222222-|
|-00--000000-|
  ..  ......   . p.m.





Static-X - Ostegolation - Wisconsin Death Trip

Tabbed by Elvisz(elvisz@kornkids.com)

Intro:
|------|
|------|
|------|
|-2~~~~|
|-2~~~~|
|-0~~~~|

Pre-verse:
|---------------------------------|
|---------------------------------|
|-----*3*-*3*-*3*-*3*-*3*-*(3) 3*-|
|-2~~-*3*-*3*-*3*-*3*-*3*-*(3)r2*-|
|-2~~-----------------------------|
|-0~~-----------------------------|

Verse1:
|--------------------|
|--------------------|
|--------------------|
|-----3(3)------2(2)-|
|-2-2-2(2)--2-2-2(2)-|
|-0-0-0(0)--0-0-0(0)-|

Fill1:
|--------------------|
|--------------------|
|-777777777777777777-|
|-xxxxxxxxxxxxxxxxxx-|
|-555555555555555555-|
|--------------------|

Verse1:
|--------------------|
|--------------------|
|--------------------|
|-----3(3)------2(2)-|
|-2-2-2(2)--2-2-2(2)-|
|-0-0-0(0)--0-0-0(0)-|

Pre-verse:
|---------------------------------|
|---------------------------------|
|-----*3*-*3*-*3*-*3*-*3*-*(3) 3*-|
|-2~~-*3*-*3*-*3*-*3*-*3*-*(3)r2*-|
|-2~~-----------------------------|
|-0~~-----------------------------|

Verse1:
|--------------------|
|--------------------|
|--------------------|
|-----3(3)------2(2)-|
|-2-2-2(2)--2-2-2(2)-|
|-0-0-0(0)--0-0-0(0)-|

Intro again:
|------|
|------|
|------|
|-2~~~~|
|-2~~~~|
|-0~~~~|

Pre-verse:
|---------------------------------|
|---------------------------------|
|-----*3*-*3*-*3*-*3*-*3*-*(3) 3*-|
|-2~~-*3*-*3*-*3*-*3*-*3*-*(3)r2*-|
|-2~~-----------------------------|
|-0~~-----------------------------|

Chorus:
|---------|
|---------|
|-7-7-----|
|-7-7//22-|
|-5-5//00-|
|---------|

Verse2:
|---------------------------------|
|---------------------------------|
|-----*3*-*3*-*3*-*3*-*3*-*(3) 3*-|
|-2~~-*3*-*3*-*3*-*3*-*3*-*(3)r2*-|
|-2~~-----------------------------|
|-0~~-----------------------------|

|--------------------|
|--------------------|
|--------------------|
|-----3(3)------2(2)-|
|-2-2-2(2)--2-2-2(2)-|
|-0-0-0(0)--0-0-0(0)-|

Chorus:
|---------|
|---------|
|-7-7-----|
|-7-7//22-|
|-5-5//00-|
|---------|

|----------------------------------|
|----------------------------------|
|-7777777779999774444444-----------|
|-xxxxxxxxxxxxxxxxxxxxxx7777777777-|
|-5555555557777552222222xxxxxxxxxx-|
|-----------------------5555555555-|

Outro:
|---------|
|---------|
|-7-7-----|
|-7-7//22-|
|-5-5//00-|
|---------|





Static-X - Stem - Wisconsin Death Trip

Tabbed by Elvisz(elvisz@kornkids.com)

Intro:
|---------|
|---------|
|---------|
|---------|
|-X-X-X-X-|
|-X-X-X-X-|

|--------------|-----------|--------------|-----------|
|--------------|-----------|--------------|-----------|
|----9--9-9--9-|----9--9-9-|----9--9-9--9-|----9--9-9-|
|----x--x-x--x-|----x--x-x-|----x--x-x--x-|----x--x-x-|
|----7--7-7--7-|----7--7-7-|----7--7-7--7-|----7--7-7-|
|-0~---0-0-0---|-0~---0-0--|-00~--0-0-0---|-0~---0-0--|

Verse:(with the end of the intro)
|-----------------------|--------------|
|-----------------------|--------------|
|----9--9-9//12~~~~~~~~-|-12~~~~~~~~~~~|
|----x--x-xxxxxxxxxxxxx-|-xxxxxxxxxxxxx|
|----7--7-7//10~~~~~~~~-|-10~~~~~~~~~~~|
|-0~---0-0--------------|--------------|

Bridge:
|--------------|-----------|--------------|-----------|
|--------------|-----------|--------------|-----------|
|----9--9-9--9-|----9--9-9-|----9--9-9--9-|----9--9-9-|
|----x--x-x--x-|----x--x-x-|----x--x-x--x-|----x--x-x-|
|----7--7-7--7-|----7--7-7-|----7--7-7--7-|----7--7-7-|
|-0~---0-0-0---|-0~---0-0--|-00~--0-0-0---|-0~---0-0--|

Verse:(with the end of the intro)
|-----------------------|--------------|
|-----------------------|--------------|
|----9--9-9//12~~~~~~~~-|-12~~~~~~~~~~~|
|----x--x-xxxxxxxxxxxxx-|-xxxxxxxxxxxxx|
|----7--7-7//10~~~~~~~~-|-10~~~~~~~~~~~|
|-0~---0-0--------------|--------------|

Outro:
|---|
|---|
|---|
|-2-|
|-2-|
|-0-|





Static-X - Sweat Of The Bud - Wisconsin Death Trip

Tabbed by Elvisz(elvisz@kornkids.com)

Intro:
|----|-----------|
|----|-----------|
|----|-----------|
|-2x-|-22222222x-|
|-2x-|-22222222x-|
|-0x-|-00000000x-|
  .    ........    . p.m.

Pre-verse:
|------------------------|
|------------------------|
|------------------------|
|------------------------|
|------------------------|
|-0-0-0-025*-0-0-0-0259*-|
  . . . .    . . . .       . p.m.

Verse:
|------------------------|
|------------------------|
|------------------------|
|-2-2-2-2----2-2-2-2-----|
|-2-2-2-2----2-2-2-2-----|
|-0-0-0-025*-0-0-0-0259*-|
  . . . .    . . . .        . p.m.

Chorus:
|----|-----------|
|----|-----------|
|----|-----------|
|-2x-|-22222222x-|
|-2x-|-22222222x-|
|-0x-|-00000000x-|
  .    ........    . p.m.

Verse:
|------------------------|
|------------------------|
|------------------------|
|-2-2-2-2----2-2-2-2-----|
|-2-2-2-2----2-2-2-2-----|
|-0-0-0-025*-0-0-0-0259*-|
  . . . .    . . . .        . p.m.

Pre-verse:
|------------------------|
|------------------------|
|------------------------|
|------------------------|
|------------------------|
|-0-0-0-025*-0-0-0-0259*-|
  . . . .    . . . .        .p.m.

Chorus:
|----|-----------|
|----|-----------|
|----|-----------|
|-2x-|-22222222x-|
|-2x-|-22222222x-|
|-0x-|-00000000x-|
  .    ........    . p.m.

Bridge:
|----------------------|
|----------------------|
|----------------------|
|-2-22------2-22-------|
|-2-22------2-22-------|
|-0-00-0025-0-00-00259-|

Chorus:
|----|-----------|
|----|-----------|
|----|-----------|
|-2x-|-22222222x-|
|-2x-|-22222222x-|
|-0x-|-00000000x-|
  .    ........    . p.m.

Verse:
|------------------------|
|------------------------|
|------------------------|
|-2-2-2-2----2-2-2-2-----|
|-2-2-2-2----2-2-2-2-----|
|-0-0-0-025*-0-0-0-0259*-|
  . . . .    . . . .        . p.m.





Static-X - Fix - Wisconsin Death Trip

Tabbed by Elvisz(elvisz@kornkids.com)

Intro:
|----------|----------|
|----------|----------|
|----------|----------|
|----------|----------|
|----------|-22--2-22-|
|-00--0-00-|-00--0-00-|

Verse:
|----------|-----------|
|----------|-----------|
|----------|-----------|
|-22--2-22-|-2-22-2-22-|
|-22--2-22-|-2-22-2-22-|
|-00--0-00-|-0-00-0-00-|

Chorus:
|-------------------------------------------|
|-------------------------------------------|
|----15~-----15-----15----1212121212/131313-|
|-22-xx--222-xx-222-xx-22-xxxxxxxxxxxxxxxxx-|
|-22-13~-222-13-222-13-22-1010101010/111111-|
|-00-----000----000----00-------------------|

Verse:
|----------|-----------|
|----------|-----------|
|----------|-----------|
|-22--2-22-|-2-22-2-22-|
|-22--2-22-|-2-22-2-22-|
|-00--0-00-|-0-00-0-00-|

Pre-chorus:
|----------|-----------|
|----------|-----------|
|----------|-----------|
|----------|-----------|
|----------|-----------|
|-00--0-00-|-0-00-0-00-|

Chorus:
|-------------------------------------------|
|-------------------------------------------|
|----15~-----15-----15----1212121212/131313-|
|-22-xx--222-xx-222-xx-22-xxxxxxxxxxxxxxxxx-|
|-22-13~-222-13-222-13-22-1010101010/111111-|
|-00-----000----000----00-------------------|

Bridge1:
|----------|
|----------|
|----------|
|-22--2-22-|
|-220-2-22-|
|-00--0-00-|

Verse:
|----------|-----------|
|----------|-----------|
|----------|-----------|
|-22--2-22-|-2-22-2-22-|
|-22--2-22-|-2-22-2-22-|
|-00--0-00-|-0-00-0-00-|

Chorus:
|-------------------------------------------|
|-------------------------------------------|
|----15~-----15-----15----1212121212/131313-|
|-22-xx--222-xx-222-xx-22-xxxxxxxxxxxxxxxxx-|
|-22-13~-222-13-222-13-22-1010101010/111111-|
|-00-----000----000----00-------------------|

Bridge2:
|----------------------------------|
|----------------------------------|
|-77777777777777777777777777777777-|
|-xxxxxxxxxxxxxxxxxxxxxxxxxxxxxxxx-|
|-55555555555555555555555555555555-|
|----------------------------------|

Chorus:
|-------------------------------------------|
|-------------------------------------------|
|----15~-----15-----15----1212121212/131313-|
|-22-xx--222-xx-222-xx-22-xxxxxxxxxxxxxxxxx-|
|-22-13~-222-13-222-13-22-1010101010/111111-|
|-00-----000----000----00-------------------|

Fill1:
|-----------------|
|-----------------|
|-----------------|
|-X\\\\\\\\\\\\\\-|
|-X\\\\\\\\\\\\\\-|
|-X\\\\\\\\\\\\\\-|

Verse:
|----------|-----------|
|----------|-----------|
|----------|-----------|
|-22--2-22-|-2-22-2-22-|
|-22--2-22-|-2-22-2-22-|
|-00--0-00-|-0-00-0-00-|

Outro:
|------------|-------------|
|------------|-------------|
|---2~-------|-----2~------|
|-222~--2-22-|-2-222~-2-22-|
|-222~--2-22-|-2-222~-2-22-|
|-000~--0-00-|-0-000~-0-00-|





Static-X - Wisconsin Death Trip - Wisconsin Death Trip

Tabbed by Elvisz(elvisz@kornkids.com)

Intro:
|------------------------------------|
|------------------------------------|
|------------------------------------|
|-XX-XXXX-XX-XXXX-XX-XXXX-XX-XXXX-XX-|
|-XX-XXXX-XX-XXXX-XX-XXXX-XX-XXXX-XX-|
|-XX-XXXX-XX-XXXX-XX-XXXX-XX-XXXX-XX-|

Verse:
|---------------------------------------------------------|
|---------------------------------------------------------|
|---------------------------------------------------------|
|-5r0--5r0-5r0-5r0--5r0-5r0-5r0--5r0-5r0-5r0--5r0-5r0-5r0-|
|-5r0--5r0-5r0-5r0--5r0-5r0-5r0--5r0-5r0-5r0--5r0-5r0-5r0-|
|-5r0--5r0-5r0-5r0--5r0-5r0-5r0--5r0-5r0-5r0--5r0-5r0-5r0-|

Fill1:
|--------|
|--------|
|--------|
|-XXXXXX-|
|-XXXXXX-|
|-XXXXXX-|

Verse:
|---------------------------------------------------------|
|---------------------------------------------------------|
|---------------------------------------------------------|
|-5r0--5r0-5r0-5r0--5r0-5r0-5r0--5r0-5r0-5r0--5r0-5r0-5r0-|
|-5r0--5r0-5r0-5r0--5r0-5r0-5r0--5r0-5r0-5r0--5r0-5r0-5r0-|
|-5r0--5r0-5r0-5r0--5r0-5r0-5r0--5r0-5r0-5r0--5r0-5r0-5r0-|

Chorus:
|----------------------------------------------------|
|----------------------------------------------------|
|----------------------------------------------------|
|-6r5~~--6r5-6r5-6r5~~--6r5-6r5-6r5~~--6r5-6r5-6r5~~-|
|-6r5~~--6r5-6r5-6r5~~--6r5-6r5-6r5~~--6r5-6r5-6r5~~-|
|-6r5~~--6r5-6r5-6r5~~--6r5-6r5-6r5~~--6r5-6r5-6r5~~-|

|-24^|
|----|
|----|	(tremolo pick, the second guitar)
|----|
|----|
|----|

Intro again:
|------------------------------------|
|------------------------------------|
|------------------------------------|
|-XX-XXXX-XX-XXXX-XX-XXXX-XX-XXXX-XX-|
|-XX-XXXX-XX-XXXX-XX-XXXX-XX-XXXX-XX-|
|-XX-XXXX-XX-XXXX-XX-XXXX-XX-XXXX-XX-|

Verse:
|---------------------------------------------------------|
|---------------------------------------------------------|
|---------------------------------------------------------|
|-5r0--5r0-5r0-5r0--5r0-5r0-5r0--5r0-5r0-5r0--5r0-5r0-5r0-|
|-5r0--5r0-5r0-5r0--5r0-5r0-5r0--5r0-5r0-5r0--5r0-5r0-5r0-|
|-5r0--5r0-5r0-5r0--5r0-5r0-5r0--5r0-5r0-5r0--5r0-5r0-5r0-|

Chorus:
|----------------------------------------------------|
|----------------------------------------------------|
|----------------------------------------------------|
|-6r5~~--6r5-6r5-6r5~~--6r5-6r5-6r5~~--6r5-6r5-6r5~~-|
|-6r5~~--6r5-6r5-6r5~~--6r5-6r5-6r5~~--6r5-6r5-6r5~~-|
|-6r5~~--6r5-6r5-6r5~~--6r5-6r5-6r5~~--6r5-6r5-6r5~~-|

|----------------------------------------------------|
|----------------------------------------------------|
|----------------------------------------------------|
|-1r0~~--1r0-1r0-1r0~~--1r0-1r0-1r0~~--1r0-1r0-1r0~~-|
|-1r0~~--1r0-1r0-1r0~~--1r0-1r0-1r0~~--1r0-1r0-1r0~~-|
|-1r0~~--1r0-1r0-1r0~~--1r0-1r0-1r0~~--1r0-1r0-1r0~~-|

|-24^|
|----|
|----|	(tremolo pick, the second guitar)
|----|
|----|
|----|

Bridge:
|----------------|-1111-11-1111-11-11-11-11-|
|----------------|--------------------------|
|----------------|--------------------------|
|----------------|--------------------------|
|-0-00-0-00-0-00-|--------------------------|
|-0-00-0-00-0-00-|--------------------------|

|-24^|
|----|
|----|	(tremolo pick, the second guitar)
|----|
|----|
|----|

Chorus:
|----------------------------------------------------|
|----------------------------------------------------|
|----------------------------------------------------|
|-6r5~~--6r5-6r5-6r5~~--6r5-6r5-6r5~~--6r5-6r5-6r5~~-|
|-6r5~~--6r5-6r5-6r5~~--6r5-6r5-6r5~~--6r5-6r5-6r5~~-|
|-6r5~~--6r5-6r5-6r5~~--6r5-6r5-6r5~~--6r5-6r5-6r5~~-|

|-24^|
|----|
|----|	(tremolo pick, the second guitar)
|----|
|----|
|----|

Verse:
|---------------------------------------------------------|
|---------------------------------------------------------|
|---------------------------------------------------------|
|-5r0--5r0-5r0-5r0--5r0-5r0-5r0--5r0-5r0-5r0--5r0-5r0-5r0-|
|-5r0--5r0-5r0-5r0--5r0-5r0-5r0--5r0-5r0-5r0--5r0-5r0-5r0-|
|-5r0--5r0-5r0-5r0--5r0-5r0-5r0--5r0-5r0-5r0--5r0-5r0-5r0-|

Outro:
|----------------|
|----------------|
|----------------|
|----------------|
|-0-00-0-00-0-00-|
|-0-00-0-00-0-00-|





Static-X - The Trance Is The Motion - Wisconsin Death Trip

Tabbed by Elvisz(elvisz@kornkids.com)

Intro:
|---15-----15------------------|---15-----15---------------|
|---19-----19------------------|---19-----19---------------|
|------------------------------|---------------------------|
|------------------------------|---------------------------|
|------------------------------|---------------------------|
|-0----0-0----0--0-0-0-0--0--0-|-0----0-0----0--0-0-0-0--0-|
  .    . .    .  . . . .  .  .   .    . .    .  . . . .  . 

Verse:
|-15------------------------|
|---19~~~~~~~~~--15~~~~~~~~~|
|--------------18-----------|
|---------------------------|
|---------------------------|
|---------------------------|

Intro again:
|---15-----15------------------|---15-----15---------------|
|---19-----19------------------|---19-----19---------------|
|------------------------------|---------------------------|
|------------------------------|---------------------------|
|------------------------------|---------------------------|
|-0----0-0----0--0-0-0-0--0--0-|-0----0-0----0--0-0-0-0--0-|
  .    . .    .  . . . .  .  .   .    . .    .  . . . .  . 

Verse:
|-15------------------------|
|---19~~~~~~~~~--15~~~~~~~~~|
|--------------18-----------|
|---------------------------|
|---------------------------|
|---------------------------|

Chorus:
|---------------------|
|---------------------|
|---------------------|
|-2~~~~~~~~~3~~~~~~~~~|
|-2~~~~~~~~~3~~~~~~~~~|
|-0~~~~~~~~~1~~~~~~~~~|

Fill1:
|-----------|
|-----------|
|-----------|
|-2~~~~~~~~~|
|-2~~~~~~~~~|
|-0~~~~~~~~~|

Chorus:
|---------------------|
|---------------------|
|---------------------|
|-2~~~~~~~~~3~~~~~~~~~|
|-2~~~~~~~~~3~~~~~~~~~|
|-0~~~~~~~~~1~~~~~~~~~|

Intro again:
|---15-----15------------------|---15-----15---------------|
|---19-----19------------------|---19-----19---------------|
|------------------------------|---------------------------|
|------------------------------|---------------------------|
|------------------------------|---------------------------|
|-0----0-0----0--0-0-0-0--0--0-|-0----0-0----0--0-0-0-0--0-|
  .    . .    .  . . . .  .  .   .    . .    .  . . . .  . 

Verse:
|-15------------------------|
|---19~~~~~~~~~--15~~~~~~~~~|
|--------------18-----------|
|---------------------------|
|---------------------------|
|---------------------------|

Fill2:
|-15-----------15-----------|
|---19~~~~~~~~~--19~~~~~~~~~|
|---------------------------|
|---------------------------|
|---------------------------|
|---------------------------|

Chorus:
|---------------------|
|---------------------|
|---------------------|
|-2~~~~~~~~~3~~~~~~~~~|
|-2~~~~~~~~~3~~~~~~~~~|
|-0~~~~~~~~~1~~~~~~~~~|





Static-X -  December - Wisconsin Death Trip

Tabbed by Elvisz(elvisz@kornkids.com)

Intro:
|-15~~~~~~~~~~\14~~~~~~~~~~~~--------------|
|----------------------------15~~~~~~~~~~~~|
|------------------------------------------|
|------------------------------------------|
|------------------------------------------|
|------------------------------------------|
these are the notes played, but lot of variation...

Chorus:
|------------------|
|(7)(7)(7)(77-7-77)|
|-7--7--7--77-7-77-|
|-7--7--7--77-7-77-|
|-5--5--5--55-5-55-|
|------------------|
and variations of the rythim...
Comments