Static X - This Is Not Chords & Tabs

 

This Is Not Chords & Tabs

Static X Chords & Tabs

Version: 2 Type: Tab 0 ratings
1 star 2 stars 3 stars 4 stars 5 stars
comments

This Is Not Tab

-------------------------------------------------------------------------------
			     This Is Not - Static X
-------------------------------------------------------------------------------

By: James Low whatisaturnip@yahoo.co.uk  DROPPED-D TUNING DOWN ONE WHOLE STEP

e|8--8--8--8--10-/-11--8--8--8--8--10-/-11--8--8--8--8---x3------------------|
B|---------------------------------------------------------------------------|
G|---------------------------------------------------------------------------|
D|---------------------------------------------------------------------------|
A|---------------------------------------------------------------------------|
E|---------------------------------------------------------------------------|

e|8--8--8--8--8--8--8--8--8--8--8--8--8--8--8--8-----------------------------|
B|---------------------------------------------------------------------------|
G|---------------------------------------------------------------------------|
D|---------------------------------------------------------------------------|
A|---------------------------------------------------------------------------|
E|---------------------------------------------------------------------------|

e|---------------------------------------------------------------------------|
B|---------------------------------------------------------------------------|
G|---------------------------------------------------------------------------|
D|-----------------------------------x3--------------------------------------|
A|------------------------------------------------------------------6--------|
E|6-^-0-----0---6-^-0-----0---6-^-0------6-^-0-----0---6-^-0-----0--6--------|
[ Tab from: http://www.guitartabs.cc/tabs/s/static_x/this_is_not_tab_ver_2.html ]
e|---------------------------------------------------------------------------|
B|---------------------------------------------------------------------------|
G|---------------------------------------------------------------------------|
D|---------------------------------------------------------------------------|
A|---------------------------------------------------------------------------|
E|3-^-0-----0---3-^-0-----0------3-^-0-----0---3-^-0-----0-------------------|

e|---------------------------------------------------------------------------|
B|---------------------------------------------------------------------------|
G|---------------------------------------------------------------------------|
D|---------------------------------------------------------------------------|
A|----------------------------------------------------------6----------------|
E|3-^-0-----0---3-^-0-----0------3-^-0-----0---3-^-0-----0--6----------------|

e|---------------------------------------------------------------------------|
B|---------------------------------------------------------------------------|
G|---------------------------------------------------------------------------|
D|---------------------------------------------------------------------------|
A|7--6--------------7--6--------------7--6--------------7--6-----------------|
E|7--6--------------7--6--------------7--6--------------7--6-----------------|

e|Gtr2--12-12-12-12-12-12-12-12-12-12-12-12-12-12-12-12-12-12-12-13^12-12-12-|
B|---------------------------------------------------------------------------|
G|---------------------------------------------------------------------------|
D|Gtr1-----------------------------------------------------------------------|
A|7--6--x-x-x-x-x-x-7--6--x-x-x-x-x-x-7--6--x-x-x-x-x-x-7--6--x-x-x-x-x-x----|
E|7--6--x-x-x-x-x-x-7--6--x-x-x-x-x-x-7--6--x-x-x-x-x-x-7--6--x-x-x-x-x-x----|

                           Alternate Verse Riff
                              P.M.-|                                 P.M.-|
e|---------------------------------------------------------------------------|
B|---------------------------------------------------------------------------|
G|---------------------------------------------------------------------------|
D|---------------------------------------------------------------------------|
A|-------------------------------------------------------------------0---0---|
E|3-^-0-----0---3-^-0-----0---0---0------3-^-0-----0---3-^-0-----0---0---0---|

===============================================================================
^ = Pull Off    / = Slide
Comments