Static-x - The Only Chords & Tabs

 

The Only Chords & Tabs

Static-x Chords & Tabs

Version: 2 Type: Tab 0 ratings
1 star 2 stars 3 stars 4 stars 5 stars
comments

The Only Tab

-------------------------------------------------------------------------------
		Static-X - The Only
-------------------------------------------------------------------------------
Tabbed by:ME
Email:not gonna tell ya

Tuning:tuning is drop d and a whole step down a.k.a. drop c tuning
im not saying that this tab is correct but if its wrong, its only because i 
didnt tab right cause i have played this song soooooo much(oh ya, this is my first tab!!)
just listen to the song to see how many times to play what cause this song is not hard at all.

intro/chrous guitar 1 this part played by both guitars until...
|-------------------------------|
|-------------------------------|
|---------------3------5------6-|
|-0------3------3------5------6-|
|-0------3------1------3------4-|
|-0------3----------------------|
[ Tab from: http://www.guitartabs.cc/tabs/s/static_x/the_only_tab_ver_2.html ]
this!) intro/chours guitar 2(you can figure out the rythm)
|---------------------------|
|---------------------------|
|-14------12------10------8-|
|--*-------*------*-------*-|
|-12------10------8-------6-|
|---------------------------|

Verse guitar 2
|-10------12------13-----|
|-----10------10------10-|
|------------------------|
|------------------------|
|------------------------|
|------------------------|

Solo guitar one (i know, i watched the video!!)
|-----------------------------------------------------------------------
|-----------------------------------------------------------------------
|-7------10-9-----5------10-9------3--2--3--5--7----5--7--9----7--9--10-
|-*------*--*-----*------*--*------*--*--*--*--*----*--*--*----*--*--*--
|-5------8--7-----3------8--7------1--0--1--3--5----3--5--7----5--7--8--
|-----------------------------------------------------------------------

then play the intro/chours part guitar 2 again then...

...bridge
|---------------------------------------|
|---------------------------------------|
|---------------------------------------|
|-3p2--2--3p2--2-----3p2--2--3p2--2-----|
|-3p2--2--3p2--2-----3p2--2--3p2--2-----|
|-3p2--2--3p2--2-----3p2--2--3p2--2--3*-|
Comments