Static X - Push It Chords & Tabs

 

Push It Chords & Tabs

Static X Chords & Tabs

Version: 5 Type: Tab 0 ratings
1 star 2 stars 3 stars 4 stars 5 stars
comments

Push It Tab

song: Push It

artist: Static-X

tab: Drop D tuning down one step.(CGCFAd)  Tune your strings down one
step and then tune the low E down another step.

Intro:
D-11---11-----11----11------11---11------11---11----
A-x----x-------x----x-------x----x-------x----x-----
F-8----8-------8----8-------8----8-------8----8-----
C---------------------------------------------------
G---------------------------------------------------
C----0----0-------0-----0------0----0-------0-----0-

Main riff:
D-------------------------------------------------
A-------------------------------------------------
F-------------------------------------------------
C-0-0-3--0-0-0-3--0-0-3--0-0-0-3--0-0-3--0-0-0-3--
G-0-0-3--0-0-0-3--0-0-3--0-0-0-3--0-0-3--0-0-0-3--
C-0-0-3--0-0-0-3--0-0-3--0-0-0-3--0-0-3--0-0-0-3--

Riff 1 ending:
F-8---8----
C-x---x----
G-6---6----
C---0----0-
[ Tab from: http://www.guitartabs.cc/tabs/s/static_x/push_it_tab_ver_5.html ]
Chorus:
D-------------------------------------------------
A-------------------------------------------------
F-------------------------------------------------
C-0-0-3--0-0-0-3--0-0-3--0-0-0-3--0-0-3--0-0-0-3--
G-0-0-3--0-0-0-3--0-0-3--0-0-0-3--0-0-3--0-0-0-3--
C-0-0-3--0-0-0-3--0-0-3--0-0-0-3--0-0-3--0-0-0-3--
"Yeah, you push it"

D----------------------------------
A----------------------------------
F----------------------------------
C-3-0-0--3-0-0-3--3-0-0--3-0-0-3---
G-3-0-0--3-0-0-3--3-0-0--3-0-0-3---
C-3-0-0--3-0-0-3--3-0-0--3-0-0-3---
"You, you push it push it"

Bridge:
D--------------13^
A--------------16^
F-----------------
C-----------------
G-0-0-3--0-0-0----
C-0-0-5--0-0-0----

D-11---11-----11----11------11---11------11---11----
A-x----x-------x----x-------x----x-------x----x-----
F-8----8-------8----8-------8----8-------8----8-----
C---------------------------------------------------
G---------------------------------------------------
C----0----0-------0-----0------0----0-------0-----0-
"I see it, I need it. I see it, i need it"

D----------------------------------------------------
A----------------------------------------------------
F----------------------------------------------------
C-3----------------1----------------------------------
G-3----------------1----------------------------------
C-3----------------1----------------------------------
"My head is corrosive i feed on corrosive i freak see through me.'

Comments