Static X - Push It Chords & Tabs

 

Push It Chords & Tabs

Static X Chords & Tabs

Version: 3 Type: Tab 0 ratings
1 star 2 stars 3 stars 4 stars 5 stars
comments

Push It Tab

   
Tuning: C F A# D# G C 
 
 
INTRO 
             x8 
|--------------| 
|--------------| 
|-22----22-----| 
|--------------| 
|-20----20-----| 
|-----0----0---| 
 
                x7 
|-----------------| 
|-----------------| 
|-----------------| 
|-----5-------5---| 
|-----5-------5---| 
|-0-0-3-0-0-0-3---| 
              ^sustain this on the 4th bar only 
 
|--------------| 
|--------------| 
|-10----10-----| 
|--------------| 
|-8-----8------| 
|-----0----0---| 
 
 
VERSE 
                x8 
|-----------------| 
|-----------------| 
|-----------------| 
|-----5-------5---| 
|-----5-------5---| 
|-0-0-3-0-0-0-3---| 
 
 
CHORUS 
                x7 
|-----------------| 
|-----------------| 
|-----------------| 
|-----5-------5---| 
|-----5-------5---| 
|-0-0-3-0-0-0-3---| 
 
 
|-----------------| 
|-----------------| 
|-----------------| 
|-5-----5-----5---| 
|-5-----5-----5---| 
|-3-0-0-3-0-0-3---| 
 
 
VERSE 2 
                x8 
|-----------------| 
|-----------------| 
|-----------------| 
|-----5-------5---| 
|-----5-------5---| 
|-0-0-3-0-0-0-3---| 
 
 
CHORUS 2 - Same 
 
                x7 
|-----------------| 
|-----------------| 
|-----------------| 
|-----5-------5---| 
|-----5-------5---| 
|-0-0-3-0-0-0-3---| 
 
|-----------------| 
|-----------------| 
|-----------------| 
|-5-----5-----5---| 
|-5-----5-----5---| 
|-3-0-0-3-0-0-3---| 
  ............. 
 
 
BRIDGE 
             x8 
|--------------| 
|--------------| 
|-22----22-----| 
|--------------| 
|-20----20-----| 
|-----0----0---| 
 
                    x3 
|-------------15------| 
|-------------18b20---| 
|---------------------| 
|-----5---------------| 
|-----5---------------| 
|-0-0-3-0-0-0---------| 
  ........... 
 
|-----------------| 
|-----------------| 
|-----------------| 
|-----5-------5---| 
|-----5-------5---| 
|-0-0-3-0-0-0-3---| 
  ...   ..... 
 
             x8 
|--------------| 
|--------------| 
|-22----22-----| 
|--------------| 
|-20----20-----| 
|-----0----0---| 
 
 
INTERLUDE 
|-------------------| 
|-------------------| 
|-------------------| 
|-5--------3--------| 
|-5--------3--------| 
|-3--------1--------| 
 
                x4 
|-----------------| 
|-----------------| 
|-----------------| 
|-----5-------5---| 
|-----5-------5---| 
|-0-0-3-0-0-0-3---| 
 
 
|-------------------| 
|-------------------| 
|-------------------| 
|-5--------3--------| 
|-5--------3--------| 
|-3--------1--------| 
 
 
CHORUS 3/OUTRO 
 
                x7 
|-----------------| 
|-----------------| 
|-----------------| 
|-----5-------5---| 
|-----5-------5---| 
|-0-0-3-0-0-0-3---| 
 
|-----------------| 
|-----------------| 
|-----------------| 
|-5-----5-----5---| 
|-5-----5-----5---| 
|-3-0-0-3-0-0-3---| 
 
                x7 
|-----------------| 
|-----------------| 
|-----------------| 
|-----5-------5---| 
|-----5-------5---| 
|-0-0-3-0-0-0-3---| 
 
End on 
|-----------------| 
|-----------------| 
|-----------------| 
|-5-----5-----5---| 
|-5-----5-----5---| 
|-3-0-0-3-0-0-3---| 
  ...........

[ Tab from: http://www.guitartabs.cc/tabs/s/static_x/push_it_tab_ver_3.html ]
Comments