Static X - Push It Chords & Tabs

 

Push It Chords & Tabs

Static X Chords & Tabs

Version: 2 Type: Tab 0 ratings
1 star 2 stars 3 stars 4 stars 5 stars
comments

Push It Tab


    Song: Push it
    Artist: Static-X
    Album: Wisconsin Death Trip


    The Tuning:(low to high) CGCFAD



    Intro
[ Tab from: http://www.guitartabs.cc/tabs/s/static_x/push_it_tab_ver_2.html ]
     D-------------------------------------------D
     A-------------------------------------------A
     F--8---8-----8---8-----8---8-----8---8------F
     C-------------------------------------------C
     G-------------------------------------------G
     C----0---0-00--0---0-00--0---0-00--0---0-00-C
     
     Palm Mute all notes on top c string for intro!

    Main Riff

     D-----------------------------------D
     A-----------------------------------A
     F-----------------------------------F
     C---0-0-3-0-0-0-5---0-0-3-0-0-0-5---C
     G---0-0-3-0-0-0-5---0-0-3-0-0-0-5---G
     C---0-0-3-0-0-0-5---0-0-3-0-0-0-5---C
Comments