Static-x - Im The One Chords & Tabs

 

Im The One Chords & Tabs

Static-x Chords & Tabs

Version: 6 Type: Tab

Im The One Tab

Static X 
Im The One
Start A War
*-Harmonic
\-Slide Down
/-Slide Up
.-Palm mute

Intro
|-----------------------------------|
|-----------------------------------|
|-----------------------------------|
|0-0---0-0---0-0---0-0-1-3----------| 2x
|0-0---0-0---0-0---0-0-1-3----------|
|0-0-3-0-0-3-0-0-3-0-0-1-3----------|
     *     *     *

Verse       (this is played during the verse and before 
             the verse after the intro)
|-----------------------------------|
|-----------------------------------|
|-----------------------------------|
|0-0--0-0--0--0--0--0-1-3-----------|
|0-0--0-0--0--0--0--0-1-3-----------|
|0-0--0-0--0--0--0--0-1-3-----------|

Pre Chorus   (im the, Yeah)
|------------------------------------|
|------------------------------------|
|------------------------------------|
|0-0---0-0---0-0---0-0---------------|
|0-0---0-0---0-0---0-0---------------|
|0-0-3-0-0-3-0-0-3-0-0---------------|
     *     *     *

Chorus
|-------------------------------------------------------------------------|
|-------------------------------------------------------------------------|
|55555555----------55555555----------55555555----------55555555/77777777--|
|55555555-00000000-55555555-00000000-55555555-00000000-55555555/77777777--|
|33333333-00000000-33333333-00000000-33333333-00000000-33333333/55555555--|
|---------00000000----------00000000----------00000000--------------------|

Chorus Guitar 2  (this plays at the same time with 
                  guitar 1 during the chorus)
|-------------------------------------------------------------------------|
|-------------------------------------------------------------------------|
|-------------------------------------------------------------------------|
|33333333-00000000-33333333-00000000-33333333-00000000-33333333/55555555--|
|33333333-00000000-33333333-00000000-33333333-00000000-33333333/55555555--|
|33333333-00000000-33333333-00000000-33333333-00000000-33333333/55555555--|

Pre Verse and Verse
|-----------------------------------|
|-----------------------------------|
|-----------------------------------|
|0-0--0-0--0--0--0--0-1-3-----------| 
|0-0--0-0--0--0--0--0-1-3-----------|
|0-0--0-0--0--0--0--0-1-3-----------|

Pre Chorus   (im the, Yeah)
|------------------------------------|
|------------------------------------|
|------------------------------------|
|0-0---0-0---0-0---0-0---------------|
|0-0---0-0---0-0---0-0---------------|
|0-0-3-0-0-3-0-0-3-0-0---------------|
     *     *     *

Chorus
|-------------------------------------------------------------------------|
|-------------------------------------------------------------------------|
|55555555----------55555555----------55555555----------55555555/77777777--|
|55555555-00000000-55555555-00000000-55555555-00000000-55555555/77777777--|
|33333333-00000000-33333333-00000000-33333333-00000000-33333333/55555555--|
|---------00000000----------00000000----------00000000--------------------|

Chorus Guitar 2  (this plays at the same time with 
                  guitar 1 during the chorus)
|-------------------------------------------------------------------------|
|-------------------------------------------------------------------------|
|-------------------------------------------------------------------------|
|33333333-00000000-33333333-00000000-33333333-00000000-33333333/55555555--|
|33333333-00000000-33333333-00000000-33333333-00000000-33333333/55555555--|
|33333333-00000000-33333333-00000000-33333333-00000000-33333333/55555555--|

[ Tab from: http://www.guitartabs.cc/tabs/s/static_x/im_the_one_tab_ver_6.html ]
|------------------------------------|
|------------------------------------|
|------------------------------------|
|0-0---0-0---0-0---0-0---------------|
|0-0---0-0---0-0---0-0---------------|
|0-0-3-0-0-3-0-0-3-0-0-3-------------|
     *     *     *     *

Bridge   (Auto-matic, Termi-nation, Selfde-struction, Revo-lution)
|------------------------------------------------------|
|------------------------------------------------------|
|------------------------------------------------------|
|0-0--0-0--0-0--0-0--0-0----0-0----0-0----0-0----------|
|0-0--0-0--0-0--0-0--0-0----0-0----0-0----0-0----------|
|0-0--0-0--0-0--0-0--0-0-3--0-0-3--0-0-3--0-0-3--------|
 . .  . .  . .  . .  . . *  . . *  . . *  . . *

(the guiter playing stops in the middle of Selfdestruction)
|-------------------------------------------------------|
|-------------------------------------------------------|
|-------------------------------------------------------|
|0-0----0-0----0-0----0-0-1-3--0-0----0-0----0-0--------|
|0-0----0-0----0-0----0-0-1-3--0-0----0-0----0-0--------|
|0-0-3--0-0-3--0-0-3--0-0-1-3--0-0-3--0-0-3--0-0--------|
     *      *      *               *      *

AUTOMATIC,TERMINATION,SELFDESTRUCTION,REVOLUTION
|-------------------|
|-------------------|
|55555555/77777777--|
|55555555/77777777--|
|33333333/55555555--|
|-------------------|

(played at the same time)        This is played 2x before the next part.
|-------------------|
|-------------------|
|-------------------|
|33333333/55555555--|
|33333333/55555555--|
|33333333/55555555--|

|-------------------------|
|-------------------------|
|-------------------------|
|0-0---0-0---0-0---0-0----|
|0-0---0-0---0-0---0-0----|
|0-0-3-0-0-3-0-0-3-0-0-3--|
     *     *     *     *

(this is played right befor the bring it down, to the ground part)

|-------------------------|
|-------------------------| Both guitars play this 
|-------------------------|
|33333333\55555555--------|
|33333333\55555555--------|
|33333333\55555555--------|

Bring it down, To the ground!
|-------------------------|
|-------------------------|
|-------------------------|
|0-0---0-0---0-0---0-0----|
|0-0---0-0---0-0---0-0----|
|0-0-3-0-0-3-0-0-3-0-0-3--|
     *     *     *     *

Im the Yeah, Im the yeah, Im the Yeah, Im the one!
|-------------------------|
|-------------------------|
|-------------------------|
|0-0---0-0---0-0---0-0----|
|0-0---0-0---0-0---0-0----|
|0-0-3-0-0-3-0-0-3-0-0----|
     *     *     *     

Chorus
|-------------------------------------------------------------------------|
|-------------------------------------------------------------------------|
|55555555----------55555555----------55555555----------55555555/77777777--|
|55555555-00000000-55555555-00000000-55555555-00000000-55555555/77777777--|
|33333333-00000000-33333333-00000000-33333333-00000000-33333333/55555555--|
|---------00000000----------00000000----------00000000--------------------|

Chorus Guitar 2  
                 
|-------------------------------------------------------------------------|
|-------------------------------------------------------------------------|
|-------------------------------------------------------------------------|
|33333333-00000000-33333333-00000000-33333333-00000000-33333333/55555555--|
|33333333-00000000-33333333-00000000-33333333-00000000-33333333/55555555--|
|33333333-00000000-33333333-00000000-33333333-00000000-33333333/55555555--|

This is played 4x to end the song
|-----------------------------------|
|-----------------------------------|
|-----------------------------------|
|0-0--0-0--0--0--0--0-1-3-----------| 
|0-0--0-0--0--0--0--0-1-3-----------|
|0-0--0-0--0--0--0--0-1-3-----------|

Static X ROCKS!!!!!