Static-x - Im The One Chords & Tabs

 

Im The One Chords & Tabs

Static-x Chords & Tabs

Version: 1 Type: Tab 0 ratings
1 star 2 stars 3 stars 4 stars 5 stars
comments

Im The One Tab

   
song: im the one
album: start a war
band: static-x                                                     -0-
                                                                   -0-
im not 100% sure that this tab is right, and i think that all the  -0- are actually -2-
but i cant tell. atleast i tried.....and i hope you like
         -0-
         -0-
it...if you think its wrong just write what think is right on the comments.
ps: static-x rocks!

 (C G C F A D)

intro:
----------------------------------------|
----------------------------------------|
----------------------------------------|
-0-0------0-0------0-0-------0-0-1-3----|
-0-0-12hb-0-0-12hb-0-0-12hb--0-0-1-3 *2-|
-0-0------0-0------0-0-------0-0-1-3----|
verse:
----------------------------|
----------------------------|
----------------------------|
-0-0--0-0--0-0-0-0--0-1-3---|
-0-0--0-0--0-0-0-0--0-1-3---|*7
-0-0--0-0--0-0-0-0--0-1-3---|
pre chorus:
---------------------------------|
---------------------------------|
---------------------------------|
-0-0------0-0------0-0-------0-0-|
-0-0-12hb-0-0-12hb-0-0-12hb--0-0-|
-0-0------0-0------0-0-------0-0-|
chorus:
------------------------|
------------------------|
------------------------|
-6-----0-     in all *3-|
-6-*8--0-*8-------------|
-6-----0----------------|

------------------|
------------------|
------------------|
-6-----8----------|
-6-*8--8-*8-------|
-6-----8----------|

do all but the intro over again

-----------------------------|
-----------------------------|
-----------------------------|
-0-0------0-0------0-0-------|
-0-0-12hb-0-0-12hb-0-0-12hb--|
-0-0------0-0------0-0-------|
[ Tab from: http://www.guitartabs.cc/tabs/s/static_x/im_the_one_tab.html ]
bridge:
-----------------------------|
-----------------------------|
-----------------------------|
-0-0---0-0---0-0---0-0-------|
-0-0---0-0---0-0---0-0-------|
-0-0---0-0---0-0---0-0-------|
 . .   . .   . .   . .

--------------------------------------|
--------------------------------------|
--------------------------------------|
-0-0------0-0------0-0-------0-0------|
-0-0-12hb-0-0-12hb-0-0-12hb--0-0-12hb-|
-0-0------0-0------0-0-------0-0------|
 . .      . .      . .

-------------------------------------|
-------------------------------------|
-------------------------------------|
-0-0------0-0------0-0-------0-0-1-3-|
-0-0-12hb-0-0-12hb-0-0-12hb--0-0-1-3-|
-0-0------0-0------0-0-------0-0-1-3-|

--------------------------|
--------------------------|
--------------------------|
-0-0------0-0------0-0----|
-0-0-12hb-0-0-12hb-0-0----|
-0-0------0-0------0-0----|

---------------------------|
---------------------------|
---------------------------|
-1-----3-----0-0-----------|*3
-1-*8--3-*8--0-0-12hb-*4---|
-1-----3-----0-0-----------|

------------------------------------|
------------------------------------|
------------------------------------|
-0-0------0-0------0-0-------0-0----|
-0-0-12hb-0-0-12hb-0-0-12hb--0-0----|
-0-0------0-0------0-0-------0-0----|

chorus:
------------------------|
------------------------|
------------------------|
-6-----0-     in all *3-|
-6-*8--0-*8-------------|
-6-----0----------------|

------------------|
------------------|
------------------|
-6-----8----------|
-6-*8--8-*8-------|
-6-----8----------|

outro:
----------------------------|
----------------------------|
----------------------------|
-0-0--0-0--0-0-0-0--0-1-3---|*3
-0-0--0-0--0-0-0-0--0-1-3---|
-0-0--0-0--0-0-0-0--0-1-3---|

--------------------------------|
--------------------------------|
--------------------------------|
-0-0--0-0--0-0-0-0--0-1-3---0-0-|
-0-0--0-0--0-0-0-0--0-1-3---0-0-|
-0-0--0-0--0-0-0-0--0-1-3---0-0-|

 well thats it, i hope you liked
Comments