Static X - Get To The Gone Chords & Tabs

 

Get To The Gone Chords & Tabs

Static X Chords & Tabs

Version: 3 Type: Tab 0 ratings
1 star 2 stars 3 stars 4 stars 5 stars
comments

Get To The Gone Tab

   
-------------------------
Static-X
-------------------------
Get To The Gone
-------------------------
Machine
-------------------------
Tuning: C,G,D,F,A,D
-------------------------
Tabbed by Chris Hurden
-------------------------


PM ... - Palm Muting


Alot of people have tabbed this song wrong, 
Its really obvious when you listen to it,
Im positive this is 100% right. Check it out.


----------
Intro Riff
----------

D|------------------------------------------------------------------------|
A|------------------------------------------------------------------------|
F|------------------------------------------------------------------------|
D|-000000-333333-222222-111111-66666-5--000000-333333-222222-111111-00000-|
G|-000000-333333-222222-111111-66666-5--000000-333333-222222-111111-00000-|
C|-000000-333333-222222-111111-66666-5--000000-333333-222222-111111-00000-| x2
   ...... ...... ...... ...... ..... .  ...... ...... ...... ...... .....


------
Chorus
------

D|--------------------------------------------------|
A|--------------------------------------------------|
F|--------------------------------------------------|
D|-6-0-5-0-0-5-0-0-5-0-0-5--6-0-5-0-0-5-0-0-5-0-0-5-|
G|-6-0-5-0-0-5-0-0-5-0-0-5--6-0-5-0-0-5-0-0-5-0-0-5-|
C|-6-0-5-0-0-5-0-0-5-0-0-5--6-0-5-0-0-5-0-0-5-0-0-5-| x2

   Get To The Gone...       Under The Gun...


-------
Verse 1
-------

D|--------------------------------------------------|
A|--------------------------------------------------|
F|--------------------------------------------------|
D|-6-0-5-0-0----6-0-5-0-0----6-0-5-0-0----6-0-5-0-0-|
G|-6-0-5-0-0----6-0-5-0-0----6-0-5-0-0----6-0-5-0-0-|
C|-6-0-5-0-0----6-0-5-0-0----6-0-5-0-0----6-0-5-0-0-| x1

 Get to the gone... It's just the way you wanna be...


-----------
Chorus Riff
-----------

D|--------------------------------------------------|
A|--------------------------------------------------|
F|--------------------------------------------------|
D|-6-0-5-0-0-5-0-0-5-0-0-5--6-0-5-0-0-5-0-0-5-0-0-5-|
G|-6-0-5-0-0-5-0-0-5-0-0-5--6-0-5-0-0-5-0-0-5-0-0-5-|
C|-6-0-5-0-0-5-0-0-5-0-0-5--6-0-5-0-0-5-0-0-5-0-0-5-| x2


-------
Verse 2
-------

D|--------------------------------------------------|
A|--------------------------------------------------|
F|--------------------------------------------------|
D|-6-0-5-0-0----6-0-5-0-0----6-0-5-0-0----6-0-5-0-0-|
G|-6-0-5-0-0----6-0-5-0-0----6-0-5-0-0----6-0-5-0-0-|
C|-6-0-5-0-0----6-0-5-0-0----6-0-5-0-0----6-0-5-0-0-| x1

   I fly I fly...            Around the world...


----------
Intro Riff
----------

D|------------------------------------------------------------------------|
A|------------------------------------------------------------------------|
F|------------------------------------------------------------------------|
D|-000000-333333-222222-111111-66666-5--000000-333333-222222-111111-00000-|
G|-000000-333333-222222-111111-66666-5--000000-333333-222222-111111-00000-|
C|-000000-333333-222222-111111-66666-5--000000-333333-222222-111111-00000-| x2
   ...... ...... ...... ...... ..... .  ...... ...... ...... ...... .....


------
Chorus
------

D|--------------------------------------------------|
A|--------------------------------------------------|
F|--------------------------------------------------|
D|-6-0-5-0-0-5-0-0-5-0-0-5--6-0-5-0-0-5-0-0-5-0-0-5-|
G|-6-0-5-0-0-5-0-0-5-0-0-5--6-0-5-0-0-5-0-0-5-0-0-5-|
C|-6-0-5-0-0-5-0-0-5-0-0-5--6-0-5-0-0-5-0-0-5-0-0-5-| x2
[ Tab from: http://www.guitartabs.cc/tabs/s/static_x/get_to_the_gone_tab_ver_3.html ]
   Get To The Gone...       Under The Gun...


-------
Verse 1
-------

D|--------------------------------------------------|
A|--------------------------------------------------|
F|--------------------------------------------------|
D|-6-0-5-0-0----6-0-5-0-0----6-0-5-0-0----6-0-5-0-0-|
G|-6-0-5-0-0----6-0-5-0-0----6-0-5-0-0----6-0-5-0-0-|
C|-6-0-5-0-0----6-0-5-0-0----6-0-5-0-0----6-0-5-0-0-| x1

 Get to the gone... It's just the way you wanna be...


----------
Intro Riff
----------

D|------------------------------------------------------------------------|
A|------------------------------------------------------------------------|
F|------------------------------------------------------------------------|
D|-000000-333333-222222-111111-66666-5--000000-333333-222222-111111-00000-|
G|-000000-333333-222222-111111-66666-5--000000-333333-222222-111111-00000-|
C|-000000-333333-222222-111111-66666-5--000000-333333-222222-111111-00000-| x2
   ...... ...... ...... ...... ..... .  ...... ...... ...... ...... .....


--------
Bridge 1
--------

D|-----------------------------------|
A|-----------------------------------|
F|-----------------------------------|
D|-5555555555555555555555555555-6666-|
G|-5555555555555555555555555555-6666-|
C|-5555555555555555555555555555-6666-| x1


-----------
Chorus Riff
-----------

D|--------------------------------------------------|
A|--------------------------------------------------|
F|--------------------------------------------------|
D|-6-0-5-0-0-5-0-0-5-0-0-5--6-0-5-0-0-5-0-0-5-0-0-5-|
G|-6-0-5-0-0-5-0-0-5-0-0-5--6-0-5-0-0-5-0-0-5-0-0-5-|
C|-6-0-5-0-0-5-0-0-5-0-0-5--6-0-5-0-0-5-0-0-5-0-0-5-| x1


--------
Bridge 2
--------

D|------------------------------------------|
A|------------------------------------------|
F|------------------------------------------|
D|-5555555555555555555555555555-444-333-222-|
G|-5555555555555555555555555555-444-333-222-|
C|-5555555555555555555555555555-444-333-222-| x1


-----------
Chorus Riff
-----------

D|--------------------------------------------------|
A|--------------------------------------------------|
F|--------------------------------------------------|
D|-6-0-5-0-0-5-0-0-5-0-0-5--6-0-5-0-0-5-0-0-5-0-0-5-|
G|-6-0-5-0-0-5-0-0-5-0-0-5--6-0-5-0-0-5-0-0-5-0-0-5-|
C|-6-0-5-0-0-5-0-0-5-0-0-5--6-0-5-0-0-5-0-0-5-0-0-5-| x1


---------
Breakdown 
---------

No Guitars


------
Chorus
------

D|--------------------------------------------------|
A|--------------------------------------------------|
F|--------------------------------------------------|
D|-6-0-5-0-0-5-0-0-5-0-0-5--6-0-5-0-0-5-0-0-5-0-0-5-|
G|-6-0-5-0-0-5-0-0-5-0-0-5--6-0-5-0-0-5-0-0-5-0-0-5-|
C|-6-0-5-0-0-5-0-0-5-0-0-5--6-0-5-0-0-5-0-0-5-0-0-5-| x4

   Get To The Gone...       Under The Gun...



-------------------------
Song Structure -

-------------------------
Intro Riff			x2
-------------------------
Chorus				x2
-------------------------
Verse 1				x1
-------------------------
Chorus Riff (without VOX)	x2
-------------------------
Verse 2				x1
-------------------------
Intro Riff			x2
-------------------------
Chorus				x2
-------------------------
Verse 1				x1
-------------------------
Intro Riff			x2
-------------------------
Bridge 1			x1
-------------------------
Chorus Riff (without VOX)	x1
-------------------------
Bridge 2			x1
-------------------------
Chorus Riff (without VOX)	x1
-------------------------
Breakdown			x1
-------------------------
Chorus				x4
-------------------------
Comments