Static X - Get To The Gone Chords & Tabs

 

Get To The Gone Chords & Tabs

Static X Chords & Tabs

Version: 2 Type: Tab 0 ratings
1 star 2 stars 3 stars 4 stars 5 stars
comments

Get To The Gone Tab

   
STATIC-X       
Get to the gone
Machine
tabbed by: John Kaniuga (Metallifrickinca@aol.com)

Tuning (C,G,D,F,A,D)

I haven't seen any tabs for anything off the new album.  I think this
song is cool and I saw someone put up a tab for it, but it didn't sound
right, so I tabbed it out myself.  Listen to the song for timing and 
rhythm, and palm mute where necessary.  I'm almost positive about 
everything except maybe the intro, but it sounds good to me.

Intro
:---------------------------------------
:---------------------------------------
:---------------------------------------
:--0--3--2--1--6--5-----0--3--2--1--3--2   X2
:--0--3--2--1--6--5-----0--3--2--1--3--2
:--0--3--2--1--6--5-----0--3--2--1--3--2
   *  *  *  *  *        *  *  *  *  *       *-tremolo pick

Chorus:
:-------------------------------
:-------------------------------
:-------------------------------
:--0-0-6-0---0-6-0---0-6-0---0-6   X4
:--0-0-6-0---0-6-0---0-6-0---0-6
:--0-0-6-0---0-6-0---0-6-0---0-6
[ Tab from: http://www.guitartabs.cc/tabs/s/static_x/get_to_the_gone_tab_ver_2.html ]
Verse:
:---------------------------
:---------------------------
:---------------------------
:--0-0-6-0-----------0-0-6-0    X2
:--0-0-6-0-----------0-0-6-0
:--0-0-6-0-----------0-0-6-0


Chorus   X4

Verse    X2

Intro    X2

Chorus   X4

Verse    X2

Intro    X2


Bridge 1:
:----------------------------------------------------------------
:----------------------------------------------------------------
:---------------------------------------------------------------- 
:-3-3-3-3-3-3-3-3-3-3-3-3-3-3-3-3-3-3-3-3-3-3-3-3-3-3-3-3-4-4-4-4
:-3-3-3-3-3-3-3-3-3-3-3-3-3-3-3-3-3-3-3-3-3-3-3-3-3-3-3-3-4-4-4-4
:-3-3-3-3-3-3-3-3-3-3-3-3-3-3-3-3-3-3-3-3-3-3-3-3-3-3-3-3-4-4-4-4

Chorus    X2

Bridge 2:
:----------------------------------------------------------------
:----------------------------------------------------------------
:----------------------------------------------------------------
:-3-3-3-3-3-3-3-3-3-3-3-3-3-3-3-3-3-3-3-3-3-3-3-3-3-3-3-3-1-1-1-1
:-3-3-3-3-3-3-3-3-3-3-3-3-3-3-3-3-3-3-3-3-3-3-3-3-3-3-3-3-1-1-1-1
:-3-3-3-3-3-3-3-3-3-3-3-3-3-3-3-3-3-3-3-3-3-3-3-3-3-3-3-3-1-1-1-1

Chorus    X2

Effects break

Chorus    X8

 
Corrections on this Tab :  
Comments