Static-x - Destroy All Chords & Tabs

 

Destroy All Chords & Tabs

Static-x Chords & Tabs

Version: 4 Type: Tab 0 ratings
1 star 2 stars 3 stars 4 stars 5 stars
comments

Destroy All Tab

Song:  Destroy all
Band:  Static-X
Album: Shadow Zone

Tabbed by: Metal Benny
Email: Benny_xy@web.de

Tuning: Drop C

                                       Intro
d|---------------------------------------------------------------------------|
A|---------------------------------------------------------------------------|
F|---------------------------------------------------------------------------|
C|---------------------------------------------------------------------------|
G|---------------------------------------------------------------------------|
C|--2-2-3-0-2-2-3-0-2-2-3-0-2-2---2-2-2-3-0-2-2-3-0-2-2-3-0-2-2--------------|
[ Tab from: http://www.guitartabs.cc/tabs/s/static_x/destroy_all_tab_ver_4.html ]
                                       Verse
d|---------------------------------------------------------------------------|
A|---------------------------------------------------------------------------|
F|---------------------------------------------------------------------------|
C|--2-2-3-0-2-2-3-0-2-2-3-0-2-2---2-2-2-3-0-2-2-3-0-2-2-3-0-2-2--------------| 
G|--2-2-3-0-2-2-3-0-2-2-3-0-2-2---2-2-2-3-0-2-2-3-0-2-2-3-0-2-2--------------|
C|--2-2-3-0-2-2-3-0-2-2-3-0-2-2---2-2-2-3-0-2-2-3-0-2-2-3-0-2-2--------------|
                REPEAT AS OFTEN AS NEEDED


                                       Lead Guitar

d|---------------------------------------------------------------------------|
A|---------------------------------------------------------------------------|
F|-18-17-15----15-----------18-17-15----15-----------------------------------|
C|----------17----18-17-15-----------17----18-17-15--------------------------|
G|---------------------------------------------------------------------------|
C|---------------------------------------------------------------------------|
               REPEAT 3 TIMES
Comments