Static-x - Destroy All Chords & Tabs

 

Destroy All Chords & Tabs

Static-x Chords & Tabs

Version: 1 Type: Bass Tab 0 ratings
1 star 2 stars 3 stars 4 stars 5 stars
comments

Destroy All Bass Tab

   
Static-X
Destroy All - Shadow Zone
Tabbed by "ONLY BASS!!!"

Static-X Bass Tuning A#,D#,G#,C#,F#

This song is pretty easy, you only have to use the 5th string.
Just follow the rhythm and times with the track.


INTRO 1 Guitars (0:00 - 0:07)

INTRO 2 (0:08 - 0:22)

F#----------------------------------     |
C#----------------------------------     |
G#----------------------------------     |
D#----------------------------------     |
A#-2-2--3-0--2-2--3-0--2-2--3-0--2-2     |
                                            x2
F#----------------------------------     |
C#----------------------------------     |
G#----------------------------------     |
D#----------------------------------     |
A#2--2-2--3-0--2-2--3-0--2-2--3-0--2-2   |

VERSE 1 (0:23 - 0:38)

F#----------------------------------     |
C#----------------------------------     |
G#----------------------------------     |
D#----------------------------------     |
A#-2-2--3-0--2-2--3-0--2-2--3-0--2-2     |
                                            x2
F#----------------------------------     |
C#----------------------------------     |
G#----------------------------------     |
D#----------------------------------     |
A#2--2-2--3-0--2-2--3-0--2-2--3-0--2-2   |


Guitars (0:38 - 0:45)


VERSE 2 (0:46 - 1:01)

F#----------------------------------     |
C#----------------------------------     |
G#----------------------------------     |
D#----------------------------------     |
A#-2-2--3-0--2-2--3-0--2-2--3-0--2-2     |
                                            x2
F#----------------------------------     |
C#----------------------------------     |
G#----------------------------------     |
D#----------------------------------     |
A#2--2-2--3-0--2-2--3-0--2-2--3-0--2-2   |

CHORUS (1:01 - 1:16) Destroy!!! Destroy all!!!
[ Tab from: http://www.guitartabs.cc/tabs/s/static_x/destroy_all_btab.html ]
F#----------------------------------     |
C#----------------------------------     |
G#----------------------------------     |
D#----------------------------------     |
A#-2-2--3-0--2-2--3-0--2-2--3-0--2-2     |
                                            x2
F#----------------------------------     |
C#----------------------------------     |
G#----------------------------------     |
D#----------------------------------     |
A#2--2-2--3-0--2-2--3-0--2-2--3-0--2-2   |


Guitars (1:16 - 1:23)


BRIDGE (1:24 - 1:39)

F#----------------------------------     |
C#----------------------------------     |
G#----------------------------------     |
D#----------------------------------     |
A#-2-2--3-0--2-2--3-0--2-2--3-0--2-2     |
                                            x2
F#----------------------------------     |
C#----------------------------------     |
G#----------------------------------     |
D#----------------------------------     |
A#2--2-2--3-0--2-2--3-0--2-2--3-0--2-2   |

CHORUS (1:39 - 1:54)

F#----------------------------------     |
C#----------------------------------     |
G#----------------------------------     |
D#----------------------------------     |
A#-2-2--3-0--2-2--3-0--2-2--3-0--2-2     |
                                            x2
F#----------------------------------     |
C#----------------------------------     |
G#----------------------------------     |
D#----------------------------------     |
A#2--2-2--3-0--2-2--3-0--2-2--3-0--2-2   |


Guitars (1:54 - 2:01)


OUTRO (2:02 - 2:17)

F#----------------------------------     |
C#----------------------------------     |
G#----------------------------------     |
D#----------------------------------     |
A#-2-2--3-0--2-2--3-0--2-2--3-0--2-2     |
                                            x2
F#----------------------------------     |
C#----------------------------------     |
G#----------------------------------     |
D#----------------------------------     |
A#2--2-2--3-0--2-2--3-0--2-2--3-0--2-2   |
Comments