Static-x - Deliver Me Chords & Tabs

 

Deliver Me Chords & Tabs

Static-x Chords & Tabs

Version: 1 Type: Tab 0 ratings
1 star 2 stars 3 stars 4 stars 5 stars
comments

Deliver Me Tab

Band- Static-X
Song- Deliver Me

tuning cgcfad

--------------------------------------------|
--------------------------------------------|
--------------------------------------------|
0---6--00-0-32------------------------------|
0---6--00-0-32------------------------------|
0---6--00-0-32------------------------------|

[ Tab from: http://www.guitartabs.cc/tabs/s/static_x/deliver_me_tab.html ]
--------------------------------------------|
--------------------------------------------|
--------------------------------------------|
--------------------------------------------|
0-0-00-032----------------------------------|
0-0-00-032----------------------------------|


--------------------------------------------|
--------------------------------------------|
--------------------------------------------|
3-3-33-343----------------------------------|
3-3-33-343----------------------------------|
3-3-33-343----------------------------------|
Comments