Static-x - Control It Chords & Tabs

 

Control It Chords & Tabs

Static-x Chords & Tabs

Version: 1 Type: Tab 0 ratings
1 star 2 stars 3 stars 4 stars 5 stars
comments

Control It Tab

This song is in Drop D tuning.

Song- Control it
album-shadow zone
Band-Static-x
               Tabbed by-
                         Brennan Breakwell, this is my first tab

Intro

Guitar1-
----2----2--4h--2p----5----|
----2----2--4h--2p----5----|
----2----2--4h--2p----5----|
----2----2--4h--2p----5----|
----2----2--4h--2p----5----|
----2----2--4h--2p----5----|

----2----2--4h--2p----0----|
----2----2--4h--2p----0----|
----2----2--4h--2p----0----|
----2----2--4h--2p----0----|
----2----2--4h--2p----0----|
----2----2--4h--2p----0----|


Guitar2(main riff) <---play this only when says "2nd main riff"
just keep repeating this till intro over-
---16-15-16-15-------|
---------------------|
---------------------|
---------------------|
---------------------|
---------------------|

Main riff-

----2----2--4h--2p---------|
----2----2--4h--2p---------|
----2----2--4h--2p---------|
----2----2--4h--2p---------|
----2----2--4h--2p---------|
----2----2--4h--2p---------|

----2----2--4h--2p----0----|
----2----2--4h--2p----0----|
----2----2--4h--2p----0----|
----2----2--4h--2p----0----|
----2----2--4h--2p----0----|
----2----2--4h--2p----0----| repeatx2


Prechorus-

---16-15-14-16-15-14-16-15-14-16-15-14-16-15-|
---------------------------------------------|
---------------------------------------------|
---------------------------------------------|
---------------------------------------------|
---------------------------------------------|

Then go back up to main riff.^^

prechorus- then-->


Chorus-
[ Tab from: http://www.guitartabs.cc/tabs/s/static_x/control_it_tab.html ]
----2-2-2-2-2-2-2-2--4-4-4-4-4-4-4-4--0-0-0-0-0-0-0-0--5-5-5-5-5-5-5-5--------------|
----2-2-2-2-2-2-2-2--4-4-4-4-4-4-4-4--0-0-0-0-0-0-0-0--5-5-5-5-5-5-5-5--------------|
----2-2-2-2-2-2-2-2--4-4-4-4-4-4-4-4--0-0-0-0-0-0-0-0--5-5-5-5-5-5-5-5--------------|
----2-2-2-2-2-2-2-2--4-4-4-4-4-4-4-4--0-0-0-0-0-0-0-0--5-5-5-5-5-5-5-5--------------|
----2-2-2-2-2-2-2-2--4-4-4-4-4-4-4-4--0-0-0-0-0-0-0-0--5-5-5-5-5-5-5-5--------------|
----2-2-2-2-2-2-2-2--4-4-4-4-4-4-4-4--0-0-0-0-0-0-0-0--5-5-5-5-5-5-5-5 repeatx2^^---|

then guitar1-main riff
guitar2-2nd main riff

then main riff repeatx2

after that chorus repeatx4

bridge(when there saying "control it" in a weird way")

--2--2-2--4--2--2-2--------|
--2--2-2--4--2--2-2--------|
--2--2-2--4--2--2-2--------|
--2--2-2--4--2--2-2--------|
--2--2-2--4--2--2-2--------|
--2--2-2--4--2--2-2 repeat-|x4

guitar#2 bridge

--16-16-15-15----|
-----------------|
-----------------|
-----------------|
-----------------|
-----------------|

brifge#2,prechorus#2

------------------------------|
--5-4-3-5-4-3-5-4-3-5-4-3-5-4-|
------------------------------|
------------------------------|
------------------------------|
------------------------------| repeatx4

chorusrepeatx4

outro-

--2-2-4-4-2-2--|
--2-2-4-4-2-2--|
--2-2-4-4-2-2--|
--2-2-4-4-2-2--|
--2-2-4-4-2-2--|
--2-2-4-4-2-2--| repeatx 4

outro guitar#2-

--16-15-16-15--|
---------------|
---------------|
---------------|
---------------|
---------------| listen at end of song to find out how many times, cuz i dont know.

then at very end

--2-2-4h-2-|p
--2-2-4h-2-|p
--2-2-4h-2-|p
--2-2-4h-2-|p
--2-2-4h-2-|p
--2-2-4h-2-|p
Comments