Static X - Cold Chords & Tabs

 

Cold Chords & Tabs

Static X Chords & Tabs

Version: 7 Type: Tab 0 ratings
1 star 2 stars 3 stars 4 stars 5 stars
comments

Cold Tab

Artist: Static-X
Song: Cold
Tuning: CGCFAD
Tabliture by: Brian Graham
[ Tab from: http://www.guitartabs.cc/tabs/s/static_x/cold_tab_ver_7.html ]
Main Riff:2x
D: ----------------------------------------------------
A: ----------------------------------------------------
F: ----------------------------------------------------
C: 0--0-0--0--0--0--0-0------0--0-0--0--0--0--0-0------
G: 0--0-0--0--0--0--0-0------0--0-0--0--0--0--0-0------
C: 0--0-0--0--0--0--0-0------0--0-0--0--0--0--0-0------

Chorus:2x
D: ------------------------------------------------------------
A: ------------------------------------------------------------
F: 7-------9-10-7-13-12----12----7-------9-10-7-13-12----13----
C: ------------------------------------------------------------
G: 5------7-8-5-11-10----10----5------7-8-5-11-10----11--------
C: ------------------------------------------------------------
Comments