Static X - Cold Chords & Tabs

 

Cold Chords & Tabs

Static X Chords & Tabs

Version: 12 Type: Tab 0 ratings
1 star 2 stars 3 stars 4 stars 5 stars
comments

Cold Tab

Song: Cold
Band: Static-X
Album: Machine
Tabbed By: Greg Stanly


Key
~~~  Let ring
x    Mute
\\\\   Slide Down

Intro/Verse:   Tripp & Wayne
|--------------------------------------------------------------------------|
|--------------------------------------------------------------------------|
|--------------------------------------------------------------------------|
|--------------------------------------------------------------------------|
|-------2---2---2---22---2-------------------------------------------------|
|-------0---0---0---00---0-------------------------------------------------|
(Each one sounds like 2 strums...but it Isn\'t.)

Chorus:   Tripp
|--------------------------------------------------------------------------|
|--------------------------------------------------------------------------|
|-------9~~~----------------------15---14~~~---------7---------------------|
|-------x~~~-----------------------x----x~~~---------x---------------------|
|-------7~~~----------10--7-------13---12~~~---------5---------------------|
|--------------------------------------------------------------------------|

|--------------------------------------------------------------------------|
|--------------------------------------------------------------------------|
|-------9~~~----------------------15---14~~~---------14--------------------|
|-------x~~~-----------------------x----x~~~----------x--------------------|
|-------7~~~----------10--7-------13---12~~~---------12--------------------|
|--------------------------------------------------------------------------|

|--------------------------------------------------------------------------|
|--------------------------------------------------------------------------|
|-------9~~~----------------------15---14~~~---------7---------------------|
|-------x~~~-----------------------x----x~~~---------x---------------------|
|-------7~~~----------10--7-------13---12~~~---------5---------------------|
|--------------------------------------------------------------------------|
[ Tab from: http://www.guitartabs.cc/tabs/s/static_x/cold_tab_ver_12.html ]
|--------------------------------------------------------------------------|
|--------------------------------------------------------------------------|
|-------9~~~----------------------15---14~~~-------------------------------|
|-------x~~~-----------------------x----x~~~-------------------------------|
|-------7~~~----------10--7-------13---12~~~-------------------------------|
|-----------------------------------------------------------12\\\\---------|


Chorus:   Wayne
|--------------------------------------------------------------------------|
|--------------------------------------------------------------------------|
|--------------------------------------------------------------------------|
|---------------------------------8----7~~~---------------7----------------|
|-------2~~~----------------------x----x~~~---------------x----------------|
|-------0~~~---------3--0---------6----5~~~---------------5----------------|

|--------------------------------------------------------------------------|
|--------------------------------------------------------------------------|
|---------------------------------------------------------7----------------|
|---------------------------------8----7~~~---------------x----------------|
|-------2~~~----------------------x----x~~~---------------5----------------|
|-------0~~~---------3--0---------6----5~~~--------------------------------|

|--------------------------------------------------------------------------|
|--------------------------------------------------------------------------|
|--------------------------------------------------------------------------|
|---------------------------------8----7~~~---------------7----------------|
|-------2~~~----------------------x----x~~~----------------x---------------|
|-------0~~~---------3--0---------6----5~~~---------------5----------------|

|--------------------------------------------------------------------------|
|--------------------------------------------------------------------------|
|--------------------------------------------------------------------------|
|---------------------------------8----7~~~--------------------------------|
|-------2~~~----------------------x----x~~~--------------------------------|
|-------0~~~---------3--0---------6----5~~~----------------12\\\\----------|

Order
Intro/Verse  x16
Chorus  x1
Intro/Verse  x9
Chorus  x1
Intro/Verse  x4
Big pause...
Chorus  x2
Intro/Verse  x4

Thats it! Straight out of the Guitar Anthology tab book.
Comments